311 - Solar Flare Chords & Tabs

 

Solar Flare Chords & Tabs

311 Chords & Tabs

Version: 1 Type: Bass Tab 0 ratings
1 star 2 stars 3 stars 4 stars 5 stars
comments

Solar Flare Bass Tab

   
“Solar Flare” by: 311

Tabbed By : Chris Gill
e-mail: CGill1403@aol.com

Tuning: B E A D G

G|------------------------------------------------|
D|------------------------------------------------|
A|------------------------------------------------|
E|------------------------------------------------|
B|--0-----3---0--5--3-----0---0---3---0--5--3--0--|

G|-------------------------------------------------|
D|-------------------------------------------------|
A|-------------------------------------------------|
E|-------------------------------------------------|
B|--0-----3---0--5--3-----0---3---0-----0---3---0--|
[ Tab from: http://www.guitartabs.cc/tabs/0-9/311/solar_flare_btab.html ]
G|------------------------------------------------------------------------|
D|------------------------------------------------------------------------|
A|------------------------------------------------------7--------7-----7--|
E|--3----3--3--3--3----2---2--2--1--1--1--1--0----0--0-----0--0-----0-----|
B|------------------------------------------------------------------------|

G|-----------------------------------------------------------------------|
D|-----------------------------------------------------------------------|
A|-----------------------------------------------------------------------|
E|--3----3--3--3--3----2---2--2--1--1--1--1--0----0--0----0---0----0--0--|
B|-----------------------------------------------------------------------|


| /  slide up
| \  slide down
| h  hammer-on
| p  pull-off
| ~  vibrato
| +  harmonic
| x  Mute note
===============================================================================
Comments