311 - Six Chords & Tabs

 

Six Chords & Tabs

311 Chords & Tabs

Version: 3 Type: Bass Tab

Six Bass Tab

   
Artist: 311
Song: Six
Album: Grassroots (1994)
Bassist: P-Nut
Tuning: B-E-A-D-G


Verse 1:
G|--------------------------------|
D|--------------------------------|
A|--------4-5--4------4--5--4-----|
E|--3--2---------2-3-----------3--|
B|--------------------------------|

G|-----------------------------|
D|-----------------------------|
A|-----4-5--4------4--5--4-----|
E|--2---------2-3-----------3--|
B|-----------------------------| (x4)

G|-------------------------------|
D|-------------------------------|
A|----4--5--7--5--4-----4--5--4--|
E|--5----------------3-----------|
B|-------------------------------|

G|--------------------------------|
D|--------------------------------|
A|--------4-5--4------4--5--4-----|
E|--3--2---------2-3-----------3--|
B|--------------------------------|

G|-------------------------------|
D|-------------------------------|
A|----4--5--7--5--4-----4--5--4--|
E|--5----------------3-----------|
B|-------------------------------|

G|--------------------------------|
D|--------------------------------|
A|--------4-5--4------4--5--4-----|
E|--3--2---------2-3-----------3--|
B|--------------------------------|


Chorus:
G|------------------------------------------------------------|
D|--------------------------------------------------0--0-0-0--|
A|---------------------3-3-3-3--------------------------------|
E|--0-1-0-3--3---3-0-1-----------0-1-0-3--3---3-0-1-----------|
B|------------------------------------------------------------|

G|---------------------------------------------------|
D|---------------------------------------------------|
A|---------------------3--3-3-3----------------------|
E|--0-1-0-3--3---0-1-0-----------0-1-0-3--3---1---5--|
B|---------------------------------------------------|


Verse 2:
G|--------------------------------|
D|--------------------------------|
A|--------4-5--4------4--5--4-----|
E|--3--2---------2-3-----------3--|
B|--------------------------------|

G|-----------------------------|
D|-----------------------------|
A|-----4-5--4------4--5--4-----|
E|--2---------2-3-----------3--|
B|-----------------------------| (x2)

G|-----------------------------|
D|-----------------------------|
A|-----4-5--4------------------|
E|--2---------2-3--3-3--3-3-3--|
B|-----------------------------|

G|-----------------------------|
D|-----------------------------|
A|-----4-5--4------4--5--4-----|
E|--2---------2-3-----------3--|
B|-----------------------------| (x4)

G|-------------------------------|
D|-------------------------------|
A|----4--5--7--5--4-----4--5--4--|
E|--5----------------3-----------|
B|-------------------------------|

G|--------------------------------|
D|--------------------------------|
A|--------4-5--4------4--5--4-----|
E|--3--2---------2-3-----------3--|
B|--------------------------------|

G|-------------------------------|
D|-------------------------------|
A|----4--5--7--5--4-----4--5--4--|
E|--5----------------3-----------|
B|-------------------------------|

G|--------------------------------|
D|--------------------------------|
A|--------4-5--4------4--5--4--4--|
E|--3--2---------2-3--------------|
B|--------------------------------|

[ Tab from: http://www.guitartabs.cc/tabs/0-9/311/six_btab_ver_3.html ]
Chorus:
G|------------------------------------------------------------|
D|--------------------------------------------------0--0-0-0--|
A|---------------------3-3-3-3--------------------------------|
E|--0-1-0-3--3---3-0-1-----------0-1-0-3--3---3-0-1-----------|
B|------------------------------------------------------------|

G|-----------------------------------------------|
D|-----------------------------------------------|
A|---------------------3--3-3-3------------------|
E|--0-1-0-3--3---0-1-0-----------0-1-0-3--3---1--|
B|-----------------------------------------------|


Break:
G|-----------------------------------------------------|
D|-----------------------------------------------------|
A|---------------------0-2--2-----------3-3-3----------|
E|--3-2--0--0--0---0-2---------0--0--0--------2-2-3-2--|
B|-----------------------------------------------------|

G|-------------------------------------------------|
D|---------------------------------3-2------3-2----|
A|----------------0-2--2---------------3-2------3--|
E|--0--0--0---0-2---------0--0--0------------------|
B|-------------------------------------------------|

G|---------------------------------------------------------------|
D|-------------5---2---------------------------------------------|
A|---------------5---2---5---------------------------------------|
E|--0--0--0--3---------3---0--0--0--7-7--5-5--3-3--2-2--0--0--0--|
B|---------------------------------------------------------------|

G|-----------------------------------------------------------------|
D|--5-4-3-2-1-0---------------------------------------------0-1-2--|
A|--------------4-3-2-1-0-------------------------0-1-2-3-4--------|
E|------------------------4-3--2--1--0--1--2--3-4------------------|
B|-----------------------------------------------------------------|

G|-------------------------------------|
D|-------------------------------------|
A|-----------3-3-3---------------------|
E|--0--0--0--------2-2-3-2----2-2-3-2--|
B|-------------------------------------|



Verse 3:
G|-----------------------------|
D|-----------------------------|
A|-----4-5--4------4--5--4-----|
E|--2---------2-3-----------3--|
B|-----------------------------| (x3)

G|-----------------------|
D|-----------------------|
A|-----4-5--4------------|
E|--2---------2-3--3--3--|
B|-----------------------|


Outro:
G|----------------------------------------------|
D|----------------------------------------------|
A|----4-5-7-5-4---4-5-7------4-5-7-5-4---4-5-7--|
E|--5-----------3----------2-----------3--------|
B|----------------------------------------------| (x2)

G|----------------------------------------------|
D|----------------------------------------------|
A|----4-5-7-5-4---4-5-4------4-5-7-5-4---4-5-4--|
E|--5-----------3----------2-----------3--------|
B|----------------------------------------------|

   Gradually  slow  down
G|----------------------------------------------|
D|----------------------------------------------|
A|----4-5-7-5-4---4-5-7------4-5-7-5-4---4-5-7--|
E|--5-----------3----------2-----------3--------|
B|----------------------------------------------|

G|------------------------------------|
D|------------------------------------|
A|------------------------------------|
E|--5~-----5-x--3-x--2-x--x-1--0---0--|
B|------------------------------------|