311 - Silver Chords & Tabs

 

Silver Chords & Tabs

311 Chords & Tabs

Version: 3 Type: Bass Tab

Silver Bass Tab

   
Artist: 311
Song: Silver
Album: Grassroots (1994)
Bassist: P-nut
Tuning: B-E-A-D-G

Intro:
G|-----------------------|
D|-----------------------|
A|--------2-------4-5-4--|
E|--4-4-4----2--2--------|
B|-----------------------| (x4)


Verses:
G|-----------------------|
D|-----------------------|
A|--------2-------4-5-4--|
E|--4-4-4----2--2--------|
B|-----------------------| (x4)

G|------------------------------------------------------------------------------|
D|------------------------------------------------------------------------------|
A|--4-2-4-2-4---2------4-2-4-2-4---2-4------4-2-4-2-4---2------4-2-4-2-4---2-4--|
E|------------4---2--------------4--------------------4---2--------------4------|
B|------------------------------------------------------------------------------|

G|------------------------------------------------------------------------------|
D|------------------------------------------------------------------------------|
A|--4-2-4-2-4---2------4-2-4-2-4---2-4------4-2-4-2-4---2------4-2-4-2-4-5-2----|
E|------------4---2--------------4--------------------4---2------------------3--|
B|------------------------------------------------------------------------------|

G|--------------------------------------------------------------------|
D|--------------------------------------------------------------------|
A|--------------------------------------------------------------------|
E|--1--0-0-1-1--------1--0-0-1-1--------1--0-0-1-1--1-3---1--0-0-1-1--|
B|--------------------------------------------------------------------|

G|--------------------------------------------------------------------------|
D|--------------------------------------------------------------------------|
A|--------------------------------------------------------------------------|
E|--1--0-0-1-1-1--1---1-1--0-0-1-1-1--1---1-1--0-0-1-1--1-3---1-1--0-0-1-1--|
B|--------------------------------------------------------------------------|


G|-----------------------|
D|-----------------------|
A|--------2-------4-5-4--|
E|--4-4-4----2--2--------|
B|-----------------------| (x4)

G|-----------------------|
D|--1-2-1----------------|
A|---------2------4-5-4--|
E|-----------2--2--------|
B|-----------------------|

G|-----------------------|
D|-----------------------|
A|--------2-------4-5-4--|
E|--4-4-4----2--2--------|
B|-----------------------| (x3)
[ Tab from: http://www.guitartabs.cc/tabs/0-9/311/silver_btab_ver_3.html ]
G|------------------------------------------------------------------------------|
D|------------------------------------------------------------------------------|
A|--4-2-4-2-4---2------4-2-4-2-4---2-4------4-2-4-2-4---2------4-2-4-2-4---2-4--|
E|------------4---2--------------4--------------------4---2--------------4------|
B|------------------------------------------------------------------------------|

G|------------------------------------------------------------------------------|
D|------------------------------------------------------------------------------|
A|--4-2-4-2-4---2------4-2-4-2-4---2-4------4-2-4-2-4---2------4-2-4-2-4-5-2----|
E|------------4---2--------------4--------------------4---2------------------3--|
B|------------------------------------------------------------------------------|

G|----------------------------------------------------------------------|
D|----------------------------------------------------------------------|
A|----------------------------------------------------------------------|
E|--1--0-0-1-1--------1--0-0-1-1--------1--0-0-1-1--1-3---1-1--0-0-1-1--|
B|----------------------------------------------------------------------|

G|--------------------------------------------------------------------------|
D|--------------------------------------------------------------------------|
A|--------------------------------------------------------------------------|
E|--1--0-0-1-1-1--1---1-1--0-0-1-1-1--1---1-1--0-0-1-1--1-3---1-1--0-0-1-1--|
B|--------------------------------------------------------------------------|


Bridge:
G|-------------------------------|
D|-------------------------------|
A|----------5--------------------|
E|--0-5-7-5---5-7-0-5-7-0-7-0-5--|
B|-------------------------------| (x8)


Outro:
G|-----------------------------------------------------|
D|-----------------------------------------------------|
A|-----------------------------------------------------|
E|--5--5--3-----5--5--3--6-----5--5--3-----5--5--3--6--|
B|-----------------------------------------------------|

G|-----------------------------------------------------|
D|-----------------------------------------------------|
A|-----------------------------------------------------|
E|--5--5--3-----5--5--3--6-----5--5--3-----5--5--3--6--|
B|-----------------------------------------------------|

G|---------------------|
D|---------------------|
A|---------------------|
E|--5--3--6---1--2--3--|
B|---------------------|