311 - Silver Chords & Tabs

 

Silver Chords & Tabs

311 Chords & Tabs

Version: 1 Type: Bass Tab 0 ratings
1 star 2 stars 3 stars 4 stars 5 stars
comments

Silver Bass Tab

   
'Silver' -- Bass Tab
Performed by 311
From the album "Grassroots" on Capricorn Records
Music by:  T. Mahoney & C. Sexton
Lyrics by:  N. Hexum & D. Martinez
(c) 1994 Allegiance Music/Hydroponic Music BMI
----------
Tabbed by: Daniel Gerrity (hipsterdufus@msn.com)
311 ¬ĀGuitar Archive - http://chromosome.colorado.edu/311archive/Home.html


Verse a:
========

1:--------------------------------------------
2:--------------------------------------------
3:--------------------------------------------
4:-4-4-4-7-2---2-9-10-9--4-4-4-7-2---2-9-10-9-

Verse b:
========
[ Tab from: http://www.guitartabs.cc/tabs/0-9/311/silver_btab.html ]
1:-------------------------------------------------------------------------
2:-------------------------------------------------------------------------
3:-----------------------------------------------------------------------5-
4:-9-7-9-7-9-4-7-2---9-7-9-7-9-4-7-9---9-7-9-7-9-4-7-2---9-7-9-7-9---7-3---

Chorus:
=======

1:-------------------------------------------
2:-------------------------------------------
3:-------------------------------------------
4:-1--1-0-1-1---1--1-0-1-1---1--1-0-1-1--0-3-

Bridge:
=======

1:--------------------------------
2:--------------------------------
3:--------------------------------
4:-0-0-7-0-10-0-7-0-5-7-0-7-0-5-7-

Ending a:
=========

1:----------------------------------------------------------
2:----------------------------------------------------------
3:-5-5--3--3---5-5--3--3--6--6---5-5--3--3---5-5-3--3--6--6-
4:----------------------------------------------------------

Ending b:
=========

1:-------------------
2:-------------------
3:-------------------
4:-5--3--6---1--2--3-


== Last Updated:  July 17, 1997 ==

Comments