311 - Sever Chords & Tabs

 

Sever Chords & Tabs

311 Chords & Tabs

Version: 1 Type: Tab 0 ratings
1 star 2 stars 3 stars 4 stars 5 stars
comments

Sever Tab

   
tuning-down 2 1/2 steps - b f# d a e b

chorus
|-----------------------------------------------------------------|
|-----------------------------------------------------------------|
|---------------------------------7-7--7--7--7--7---8-----8-------|
|-3-3--3--3--3--3-7-7--7--7--7--7-7-7--7--7--7--7-----8-------8---|
|-3-3--3--3--3--3-7-7--7--7--7--7-5-5--5--5--5--5-6-----6---6---6-|
|-1-1--1--1--1--1-5-5--5--5--5--5---------------------------------|

 verse 1                                      1st ending
|----0----------------0----------- ----0------------------------------|
|------1------1---------1-----1--- ------1------1---------------------|
|---0---0-------0---0----0---0--0- ---0---0-------0-------------------|
|-----------3--------------------- -----------3-----7-7-7-7-8-8-8-8---|
|-3-------1-------3--------1------ -3-------1-------7-7-7-7-8-8-8-8---|
|--------------------------------- -----------------5-5-5-5-6-6-6-6---|
    2nd ending
|-----0------------------------|
|--------1-----11-1------------|
|---0-------------------9---7--|
|------------3------7-7-9-7-7--|
|-3--------1--------7-7-7-7-5--|
|-------------------5-5---5----|
  verse 2
|--------------------------------------|
|--------------------------------------|
|-------12----10-----9--9-9------------|
|-12-12-10-12-8--10--7--7-7-8-8--8--8/-|
|-10-10----10----8----------6-6--6--6/-|
|--------------------------------------|
  pre chorus
|-----15-13-13-12-12----11-11-11-15-15-15----13-1313-12-12-12-11-11-11-13-|
|--15-15-13-13-13-13-13-11-11-11-15-15-15-15-13-1313-13-13-13-11-11-11-13-|
|-------------------------------------------------------------------------|
|-------------------------------------------------------------------------|
|-------------------------------------------------------------------------|
|-------------------------------------------------------------------------|

|-----15-13-13-12-12----11-11-11-15-15----13-13-13-12----12-11-11-11-11-11-|
|--15-15-13-13-13-13-13-11-11-11-15-15-15-13-13-13-13-13-13-11-11-11-11-11-|
|-----------------------------------------------------------12-12-12-12-12-|
|-----------------------------------------------------------13-13-13-13-13-|
|--------------------------------------------------------------------------|
|--------------------------------------------------------------------------|
 pre solo
|------------------------------------------------------------------|
|------------------------------------------------------------------|
|-------7-----------------------------------*----------------------|
|----8-----8--7--9--10--9--12--11------14--14/15--14---------7-----|
|-5--------------------------------12-----------------9--10/-5-----|
|------------------------------------------------------------------|
                                  outro solo
|----------------------------- ---------------------------------------------|
|----------------------------- ---------------------------------------------|
|------------5------5-7------- --4/7-6----7/9-7-7--7-7/11-11--7-7--7-7/11\5-|
|--7---------5------5-7-8----- ---------------------------------------------|
|--7---------3------3-5-8----- ---------------------------------------------|
|--5--------------------6----- ---------------------------------------------|
[ Tab from: http://www.guitartabs.cc/tabs/0-9/311/sever_tab.html ]
|-----------------------------------------------------------------|
|---------------------12------------------------12h1312--12-------|
|---5-5/7-6-6-6/12----------12--12h14--12-12-----------14--12-----|
|------------------14----14---14-------------14--------------12---|
|-----------------------------------------------------------------|
|-----------------------------------------------------------------|

|----------------------------------12h13p1213912131314-15--17\--|
|------------------1212121513--1215------------------/--/-------|
|-------12-12-12h14----------------------------------/--/-------|
|--12h14---------------------------------------------/--/-------|
|---------------------------------------------------------------|
|---------------------------------------------------------------|

|-10/21-0-20p17--20p17--20p17--20p17--20--20--20--20^--20^--20^---|
|--------------17-----17-----17-----17-/---/---/------------------|
|--------------------------------------/---/---/------------------|
|--------------------------------------/---/---/------------------|
|-----------------------------------------------------------------|
|-----------------------------------------------------------------|

|--20--19201719----17----------*---------------------------------------|
|---------------20----18-2017-18p17-18p1720p17h18p17-------------------|
|---------------------------/-----/-----------------19019p1719p17------|
|---------------------------/-----/------------------------------------|
|---------------------------/-----/------------------------------------|
|----------------------------------------------------------------------|
                          p.s.--------     *-*-*  *-*------------------|
|----------------------------------------------------------------------|
|-----------------------------------x/--------------------*------------|
|-19p17--17---------------x/--x/------------------7-9-10-10/12-12-9-9--|
|------19--19p17-----17/3---------x/-------7-9-10----------------------|
|----------------------------------------------------------------------|
|----------------------------------------------------------------------|

|--------------------------------------------7--7h10p7-----------------------|
|---------------------------------------8/10-----------8-------------------8-|
|-9h10-10-9\-77-7-5-5/7-------------7910-----------------9----------7-9-10---|
|------------------------9-9-7-7-910-----------------------10-9--9-----------|
|----------------------------------------------------------------------------|
|----------------------------------------------------------------------------|

|----------------*-------7107--------------------------------------*------|
|-10\5-------5-6-6/8---------8----------------------121312----121313/15---|
|------5-4-5------------------9-----------------1314------1314------------|
|------------------------------109----------1415--------------------------|
|---------------------------------10878/12--------------------------------|
|-------------------------------------------------------------------------|

e|----------------------------------*----17----15-----13-----12-------|
B|-1312------------------------121313/15---1513--13\12--12\10--10\8\--|
G|-----141314-13-----------1314---------------------------------------|
D|---------------15-14-1415-------------------------------------------|
A|--------------------------------------------------------------------|
E|--------------------------------------------------------------------|

/ \ =slides
* = grace note
h = hammer on
p = pull off
*-*-* = triplet
^ = bend
p.s. = pick scrape
/
/ = pick rapidly
/
Comments