311 - Sever Chords & Tabs

 

Sever Chords & Tabs

311 Chords & Tabs

Version: 1 Type: Bass Tab 0 ratings
1 star 2 stars 3 stars 4 stars 5 stars
comments

Sever Bass Tab

'Sever'
Performed by 311
>From the album "Soundsysten" on Capricorn Records
Music by:  N. Hexum & A. Wills
Lyrics by:  N. Hexum & D. Martinez
(c) 1999 Hydroponic Music BMI
----------------------------------------------------------------------------------
tabbed by the funkmaster(Andy Wagner) vanilla_ice12@hotmail.com


chorus:

g-------------------------------------------------------
d-------------------------------------------------------
a-33333333---------------0000000---1-0-1-0-1-0
e---------------0000000-----------------------------

verse1:
g-----------------------
d-----------------------
a-------2-3-2----------
e---3------------00001
[ Tab from: http://www.guitartabs.cc/tabs/0-9/311/sever_btab.html ]
verse2:
g--------------------------------
d------2---3----2222----3333
a—00—0—3---------1-------
e--------------------------------

bridge thing:
g-----------------------------------------------------------------
d------7--------9-10-9-----12----11-12--------14-15-14-------
a---8-----8-7------------------------------12--------------9-10
e5----------------------------------------------------------------

solo riff:
g-------------------------------
d-------------------------------
a----0-------0-----------------
e-----0—3------0—1—2—3

outro riff:
g---------------------
d-------------------
a—0--------------
e------0---1----------


Comments