311 - Secret Track On Evolver Chords & Tabs

 

Secret Track On Evolver Chords & Tabs

311 Chords & Tabs

Version: 1 Type: Bass Tab 0 ratings
1 star 2 stars 3 stars 4 stars 5 stars
comments

Secret Track On Evolver Bass Tab

311
secret song
pnut
this song can be played on a 4 string

h-hammer on
p-pull off

1:-------17------17---------12--12h14p12---12-
2:----14------14-------------------------14---
3:-15------14-------12----12--12--------------
4:--------------------------------------------

1:-------17------17----12----14-
2:----14------14----------------
3:-15------14-------12----12----
4:------------------------------
[ Tab from: http://www.guitartabs.cc/tabs/0-9/311/secret_track_on_evolver_btab.html ]
1:-----17----19---17-------16-14------------------14-12----------------------
2:---14-------------------------17--15p14-14h15---------15-15-14-14-15-15-14-
3:-15-----15---15---15--14----------------------12---------------------------
4:---------------------------------------------------------------------------

1:-17--12--16-
2:-17--12--14-
3:---------0--


THERE ARE A FEW VARIATIONS THRU THE SONG. YOU SHOULD BE ABLE TO HEAR IT AND FIGURE IT OUT. :-)
Comments