311 - Salsa Chords & Tabs

 

311 Chords & Tabs

Version: 1 Type: Tab 0 ratings
1 star 2 stars 3 stars 4 stars 5 stars
comments

Salsa Tab

----------------------------------------------------------------------------
                                  311 - Salsa
                                  Grassroots
----------------------------------------------------------------------------

tabbed by: JesseLaceyIsGod
 ilikesubs123@aol.com

tuning: eBGDAE (standard)

Verse
Guitar 1 (distortion) - Tim
e|------------------------------|
B|------------------------------|
G|------------------------------|
D|-2----2-----------------------|
A|-2----2-------------------2---|
E|-0--2-0--2--2-2-3-2-3-4-4---0-|x4

e|--4----4----4----4-----|--2----2----2----2-----|
B|--4----4----4----4-----|--2----2----2----2-----|
G|--4----4----4----4-----|--3----3----3----3-----|
D|-----------------------|-----------------------|
A|-----------------------|-----------------------|
E|-----------------------|-----------------------| x2

REPEAT ENTIRE VERSE ONCE MORE, SO 2X IN ALL.

end of verse
Tim:
e|--2----2----2----2-----|
B|--2----2----2----2-----|
G|--3----3----3----3-----|
D|-----------------------|
A|-----------------------|
E|-----------------------|



Pre-chorus
Tim:
e|-------------------------|       |-------------------------|
B|-------------------------|       |-------------------------|
G|-3-----------------------|       |-3---------------------2-|
D|---3-1-----------------3-|       |---3-1-------------3-3---|
A|-------4-4-3-4-3-2-1-1---|       |-------4-4-3-4-3-2-1-1---|
E|-------------------------|3x     |-------------------------|



Chorus
Tim:
e|-------------------------|
B|-------------------------|
G|-------------------------|
D|----------------------2--|
A|-4-----4-4-4-4-4---4-----|
E|----2------------2-------| 8x





Verse
Guitar 1 (distortion) - Tim
e|------------------------------|
B|------------------------------|
G|------------------------------|
D|-2----2-----------------------|
A|-2----2-------------------2---|
E|-0--2-0--2--2-2-3-2-3-4-4---0-|x4
[ Tab from: http://www.guitartabs.cc/tabs/0-9/311/salsa_tab.html ]
e|--4----4----4----4-----|--2----2----2----2-----|
B|--4----4----4----4-----|--2----2----2----2-----|
G|--4----4----4----4-----|--3----3----3----3-----|
D|-----------------------|-----------------------|
A|-----------------------|-----------------------|
E|-----------------------|-----------------------| x2



Pre-chorus
Tim:
e|-------------------------|       |-------------------------|
B|-------------------------|       |-------------------------|
G|-3-----------------------|       |-3---------------------2-|
D|---3-1-----------------3-|       |---3-1-------------3-3---|
A|-------4-4-3-4-3-2-1-1---|       |-------4-4-3-4-3-2-1-1---|
E|-------------------------|3x     |-------------------------|



Chorus
Tim:
e|-------------------------|
B|-------------------------|
G|-------------------------|
D|----------------------2--|
A|-4-----4-4-4-4-4---4-----|
E|----2------------2-------| 8x




Verse
Guitar 1 (distortion) - Tim
e|------------------------------|
B|------------------------------|
G|------------------------------|
D|-2----2-----------------------|
A|-2----2-------------------2---|
E|-0--2-0--2--2-2-3-2-3-4-4---0-|x4

e|--4----4----4----4-----|--2----2----2----2-----|
B|--4----4----4----4-----|--2----2----2----2-----|
G|--4----4----4----4-----|--3----3----3----3-----|
D|-----------------------|-----------------------|
A|-----------------------|-----------------------|
E|-----------------------|-----------------------| x2



Pre-chorus
Tim:
e|-------------------------|       |-------------------------|
B|-------------------------|       |-------------------------|
G|-3-----------------------|       |-3---------------------2-|
D|---3-1-----------------3-|       |---3-1-------------3-3---|
A|-------4-4-3-4-3-2-1-1---|       |-------4-4-3-4-3-2-1-1---|
E|-------------------------|3x     |-------------------------|



Chorus
Tim:
e|-------------------------|
B|-------------------------|
G|-------------------------|
D|----------------------2--|
A|-4-----4-4-4-4-4---4-----|
E|----2------------2-------| 8x



Ending
Tim:
e|-----------------|-----------------|----------14--17-|
B|-----------------|-----------------|-15--17-----16---|
G|-----------------|--------------17-|---14--14--------|
D|-----------------|-----------------|-----------------|
A|-4----4----4-----|-4---------------|-----------------|
E|-----------------|-----------------|-----------------|


Comments