311 - Salsa Chords & Tabs

 

Salsa Chords & Tabs

311 Chords & Tabs

Version: 2 Type: Bass Tab 0 ratings
1 star 2 stars 3 stars 4 stars 5 stars
comments

Salsa Bass Tab

'Salsa' -- Bass Tab
Performed by 311
From the album "Grassroots" on Capricorn Records
Music by:  N. Hexum, T. Mahoney & C. Sexton
Lyrics by:  N. Hexum & D. Martinez
(c) 1994 Allegiance Music/Hydroponic Music BMI
----------
Tabbed by: Jason Borgmann (starrdog@csd.uwm.edu)
311 Guitar Archive - http://chromosome.colorado.edu/311archive/Home.html


Riff 1:
=======

1:-------------------------
2:-------------------------
3:-----------------------2-
4:-0-2-0-2-0-3-3-3-4-4-4---



Riff 2:
=======
[ Tab from: http://www.guitartabs.cc/tabs/0-9/311/salsa_btab_ver_2.html ]
1:-----------------------------------
2:-----------------------------------
3:-------6-6-6-----------------------
4:-3-3-3-------3-3-3---0-2-2---0-2-2-



Riff 3:
=======

1:---3--------------------------
2:-3---3-1------------------(2)-
3:---------4-4--3-4-3-2-1-1-----
4:------------------------------

              (x) last time only

Riff 4:
=======

1:--------------------
2:------------------2-
3:-4---4-4-4-4---4----
4:---4---------4------


Song Structure:
===============

Riff 1
Riff 2 
Riff 1
Riff 3
Riff 4
Riff 1
Riff 2
Riff 3
Riff 4


== Last Updated:  August 5, 1997 ==
Comments