311 - Running Chords & Tabs

 

Running Chords & Tabs

311 Chords & Tabs

Version: 3 Type: Bass Tab 0 ratings
1 star 2 stars 3 stars 4 stars 5 stars
comments

Running Bass Tab

   
Song:Running
Artist:311
Album:Transistor
Tabber:T4-TURBO

Main:
g:----------------|
d:----------------|
a:----------------|
e:5--5-7--5-10-9-5|
b:----------------|

Riff 2:
g:-----------------------------|
d:-----------------------------|
a:------3-0-4-0-5-4-----4-3----|
e:3-4-5-------------5-4-----4-3|
b:-----------------------------|

Fill:
g:----|
d:----|
a:----|
e:5\\\|
b:----|
[ Tab from: http://www.guitartabs.cc/tabs/0-9/311/running_btab_ver_3.html ]
Riff 3:
g:--------------------------------------------|
d:--------------------------------------------|
a:-------------------------------5------------|
e:12-10--10-7-9-7-9-7-6--3-3-3-3---1-2-3-2-4-2|
b:--------------------------------------------|
theres a couple little slides here but there not tabbed(i lazy)

Guitar Solo:
g:-------------------------------------------------------|
d:-------------------------------------------------------|
a:------------------------2------------------------------|
e:1--3--3---0-3--3--1-3-1----0-1-3--3--0-1--3--1--0------|
b:---------------------------------------------------3--1|

g:------------------------------------------------------|
d:------------------------------------------------------|
a:------------------------2----------1--3--1--0---------|
e:1--3--3---0-3--3--1-3-1----0--1--3-------------3--1--0|
b:------------------------------------------------------|

This may not be wright but its alot better(i think)then the other tabs
Comments