311 - Rub A Dub Chords & Tabs

 

Rub A Dub Chords & Tabs

311 Chords & Tabs

Version: 3 Type: Bass Tab 0 ratings
1 star 2 stars 3 stars 4 stars 5 stars
comments

Rub A Dub Bass Tab

   
               Song:Rub-A-Dub
               Band:311
          
               Tabbed By:Bucko (Buco@email.com)
          
          Riff 1:
                                           x2|                               x2|
          G:-5-------------------------------|---------------------------------|
          D:---5---5-5-5-5---7---7---3-------|---------------------------------|
          A:---------------------------------|---3---3-3---3---5---5---3-------|
          E:---------------------------------|-3-------------------------------|
          B:---------------------------------|---------------------------------|
          
          Riff 2:
          
          G:---------------------------------
          D:---------------------------------
          A:-3-------3-----------------------
          E:-----------------3---3---3-------
          B:---------------------------------
          
          Riff 3:
          
          G:---------------------------------
          D:---------------------------------
          A:-3-------3-----3-5-------5-------
          E:---------------------5-----------
          B:---------------------------------
          
          Song Order:
          
          Riff 1 x1
          Riff 2 x4
          Riff 1 x1
          Riff 3 x4
          Riff 2 x4
          Riff 3 x4
          Riff 2 x4
          Riff 3 x4
          Riff 2 x4
          Riff 1 x1
          Riff 2 x4
          Riff 2 x8
[ Tab from: http://www.guitartabs.cc/tabs/0-9/311/rub_a_dub_btab_ver_3.html ]
Comments