311 - Rollin Chords & Tabs

 

Rollin Chords & Tabs

311 Chords & Tabs

Version: 1 Type: Tab 0 ratings
1 star 2 stars 3 stars 4 stars 5 stars
comments

Rollin Tab

   
“Rollin” by: 311
Music by:  Nick Hexum, Chad Sexton, Aaron Wills, Tim Mahoney
Lyrics by:  Nick Hexum

Tabbed by: Chris Gill
Email: CGill1403@aol.com

Tuning: E A D G B E

e|---------------------------------------|
B|---------------------------------------|
G|---------------------------------------|
D|---------------------------------------|
A|---------------------------------------|
E|--3--0---3--0---3--0---3--0---3--2--0--|
[ Tab from: http://www.guitartabs.cc/tabs/0-9/311/rollin_tab.html ]
e|--x-x--10//12-12-12--x-x--10--x-x--12///15-15-15-10//12-12-12---------------------|
B|--x-x--10//12-12-12--x-x--10--x-x--12///15-15-15-10//12-12-12---10-8--------------|
G|--x-x--10//12-12-12--x-x--10--x-x--12///15-15-15-10//12-12-12--------9-7----------|
D|-------------------------------------------------------------------------9-7------|
A|-----------------------------------------------------------------------------10-7-|
E|----------------------------------------------------------------------------------|

e|--8\\\\------8\\\\------8\\\\------8-8\\\\--|
B|--8\\\\------8\\\\------8\\\\------8-8\\\\--|
G|--8\\\\------8\\\\------8\\\\------8-8\\\\--|
D|--8\\\\------8\\\\------8\\\\------8-8\\\\--|
A|--------------------------------------------|
E|--------------------------------------------|

e|---------------------------------------------------|
B|---------------------------------------------------|
G|---------------------------------------------------|
D|---------------------------------------------------|
A|---------------5--4-----------------5--4--2--------|
E|--0---3--0--3----------0---3--0--3-----------5--3--|


| /  slide up
| \  slide down
| h  hammer-on
| p  pull-off
| ~  vibrato
| +  harmonic
| x  Mute note
===============================================================================

Comments