311 - Right Now Chords & Tabs

 

Right Now Chords & Tabs

311 Chords & Tabs

Version: 2 Type: Tab 0 ratings
1 star 2 stars 3 stars 4 stars 5 stars
comments

Right Now Tab

   
-------------------------------------------------------------------------------
			     RIGHT NOW - 311
-------------------------------------------------------------------------------
Tabbed by: Chris Gill
Email: CGill1403@aol.com	

Tuning: Standard

CLEAN

e|--0---0--0--3---3--3--3---3--3--2---2--0----0-0----0-0----------|
B|--0---0--0--3---3--3--3---3--3--3---3--3----3-3----3-3----------|
G|--0-.-0--0--0---0--0--0---0--0--2---2--0----0-0----0-0--------.-|
D|--2-.-2--0--0---0--0--0---0--0--0---0-----------------------2-.-|
A|--2---2--2--2---2--2--2---2--2-----------3------2-----------2---|
E|--0---------3---3--3--3---3--3-------------------------3p0--0---|

LAST TIME THROUGH
e|--0--0--3---3--3--3---3--3--2---2--0----0-0----0-0-----|
B|--0--0--3---3--3--3---3--3--3---3--3----3-3----3-3-----|
G|--0--0--0---0--0--0---0--0--2---2--0----0-0----0-0-----|
D|--2--0--0---0--0--0---0--0--0---0----------------------| STRAIGHT INTO
A|--2--2--2---2--2--2---2--2-----------3------2----------|
E|--------3---3--3--3---3--3-------------------------3p0-|
[ Tab from: http://www.guitartabs.cc/tabs/0-9/311/right_now_tab_ver_2.html ]
e|--0-------3-------0---0--0--0--3--3--3--3--|
B|--1-------3-------1---1--1--1--3--3--3--3--|
G|--0----0--0---0---2---2--2--2--0--0--0--0--|
D|--2----0--0---0---3---3--3--3--0--0--0--0--|
A|--3----2--2---2---0---0--0--0--2--2--2--2--|
E|-------0--3---0----------------3--3--3--3--|

DISTORTION

e|--------------------------------------------------------------------------|
B|--------------------------------------------------------------------------|
G|--------------------------------------------------------------------------|
D|------2-------0-2------2-------0---0h2-----2--------0-2--2-2-2------------|
A|----------0h2--------------0h2---0--------------0h2------0-0-0-2--2-2-2-4-|
E|--0----------------0-------------------0-----------------------3--3-3-3-2-|

e|--------------------------------------------------------------|
B|--------------------------------------------------------------|
G|-.------------------------------------.-----------------------|
D|-.-------------------2-----2----------.--2-2-2--------------2-|
A|---2--2--2--2--2--2--0-----0--2--0-------0-0-0-2--2-2-2-4---2-|
E|---0--0--0--3--0--3-----3-----------3----------3--3-3-3-2---0-|

ENDING
e|---------------------------------------|
B|------------------------------------3--|
G|-----------------0------------------1--|
D|-----------0-1-2-----2-0--------2---2--|
A|-------0-2---------------2------2---2--|
E|---0-3---------------------3^---0------|

| /  slide up
| \  slide down
| h  hammer-on
| p  pull-off
| ~  vibrato
| +  harmonic
| x  Mute note
| :  repeat
| ^  bend note
Comments