311 - Random Chords & Tabs

 

Random Chords & Tabs

311 Chords & Tabs

Version: 2 Type: Bass Tab 0 ratings
1 star 2 stars 3 stars 4 stars 5 stars
comments

Random Bass Tab

   
'Random' - Bass Tab
Performed by 311
From the album "311" on Capricorn Records
Music by:  C. Sexton
Lyrics by:  N. Hexum & D. Martinez
(c) 1995 Allegiance Music/Hydroponic Music BMI
----------
Tabbed by: Jason Miller (jamille@hubcap.clemson.edu)
Additions/Corrections by: Unknown (SSastry1@aol.com)
311 Guitar Archive - http://chromosome.colorado.edu/311archive/Home.html


Main:
=====
G:-----------------------------
D:------------2-2-2-2-2--------
A:-0-0-0-0-0-------------------
E:----------------------2-3-2-3
[ Tab from: http://www.guitartabs.cc/tabs/0-9/311/random_btab_ver_2.html ]
G:----------------------
D:----------------0-2-0-
A:-4-0--------4-4-------
E:-----4-2-4------------


"Isn't that random....":
========================
G:---------------------------------------------
D:---------------------------------------------
A:-3-3--3-----------------2--2-----2-2---------
E:---------2-2--2-2--2-3-------2-3-----2h3-2h3-


The really cool part.....:
==========================
G:---------------------------
D:---------------------------
A:---------------------------
E:-1-1-0-1-0-1-0-1-1-0-1-2-2-

Repeat the lines as needed.


== Last Updated:  February 1, 1997 ==
Comments