311 - Prisoner Chords & Tabs

 

Prisoner Chords & Tabs

311 Chords & Tabs

Version: 2 Type: Bass Tab 0 ratings
1 star 2 stars 3 stars 4 stars 5 stars
comments

Prisoner Bass Tab

   
'Prisoner' -- Bass Tab
Performed by 311
From the album "Transistor" on Capricorn/Mercury Records
Music by:  N. Hexum
Lyrics by:  N. Hexum & D. Martinez
(c) 1997 Hydroponic Music BMI
---------------
Tabbed by: Chris McCoy (misterkite@msn.com)
The 311 Guitar Archive -- http://chromosome.colorado.edu/311archive/Home.html


Intro A:
========

1:---------------------
2:---------0-3-3-3-0---
3:-------2-----------2-
4:-3-3-3---------------


Intro B:
========

1:---------------------
2:---------0-3-0-------
3:-------2-----------2-
4:-3-3-3---------1-1---


Verse:
======

1:-------------------
2:---------0-3-0-----
3:-------------------
4:-3-3-----------1-1-

[ Tab from: http://www.guitartabs.cc/tabs/0-9/311/prisoner_btab_ver_2.html ]
Chorus A:
=========

1:-------------------
2:-------------------
3:-------------0-----
4:-3-3-3-3-3-3---1-1-


Chorus B:
=========

1:----------------
2:--------(0-3-0)-
3:----------------
4:-3-3------------
          (Last time only)

Bridge:
=======

1:-----------------
2:-------0-3-0-----
3:-(2-3)-----------
4:-------------1-1-
   (Tone of synth. part)


Song Structure:
===============
Intro A  (x4)
Intro B  (x4)
Verse  (x12)
Chorus A  (x4)
Chorus B  (x3)
Verse  (x1)
Intro A  (x4)
Verse  (x6)
Chorus A  (x2)
Verse  (x2)
Chorus  (x2)
Intro A  (x4)
Bridge  (x4)
Intro B  (x8)


== Last Updated:  August 11, 1997 ==
Comments