311 - Plain Chords & Tabs

 

Plain Chords & Tabs

311 Chords & Tabs

Version: 1 Type: Bass Tab 0 ratings
1 star 2 stars 3 stars 4 stars 5 stars
comments

Plain Bass Tab

'Plain' - Bass Tab
Performed by 311
From the album "Music" on Capricorn Records
Music by:  N. Hexum & C. Sexton
Lyrics by:  N. Hexum & D. Martinez
(c) 1995 Allegiance Music/Hydroponic Music BMI
---------------
Tabbed by: Damon Eleuterius (damone@mindspring.com)
311 Guitar Archive - http://chromosome.colorado.edu/311archive/Home.html


Intro/Verse:
============

G:-------------------
D:-------------------
A:-------------------
E:-3-5-3-5-0-2-3-2-2-   (Continue until...)

"Table Rosa, is my brain...":
=============================

G:--------------------------------5-5-----------------------------
D:-------5--7-7------------5--7-7-----------5--7-7------------9-7-
A:-----5--------5--------5----------------5--------7--------9-----
E:-3-3------------5--3-3--------------3-3------------5--7-7-------

Verse:
======

G:--------------------------------------
D:--------------------------------------
A:--------------------------------------
E:-3-5-3-5-0-2-3-2-2--3-5-3-5-0-2-3-2-2-

G:--------------------------------------
D:--------------------------------------
A:--------------------------------------
E:-3-5-3-5-0-2-3-2-2--3-5-3-5-0-2-3-2-2-

"Nod your head to this...":
===========================

G:----------------------------------------------------------
D:----------------------------------------------------------
A:----------------------------------------------------------
E:-0-0-0-0-2-3-2--0-0-0-0-2-3-2--0-0-0-0-2-3-2--0-0-0-0-2-3-

Verse:
======

G:--------------------------------------
D:--------------------------------------
A:--------------------------------------
E:-3-5-3-5-0-2-3-2-2--3-5-3-5-0-2-3-2-2-

G:--------------------------------------
D:--------------------------------------
A:--------------------------------------
E:-3-5-3-5-0-2-3-2-2--3-5-3-5-0-2-3-2-2-

"But I demand autonomy...":
===========================

G:-----------------------------------------
D:-----------------------------------------
A:-----------------------------------------
E:-5--------------------5------------------
   |  hold & slide  |   |  hold & slide  |

Verse:
======

G:--------------------------------------
D:--------------------------------------
A:--------------------------------------
E:-3-5-3-5-0-2-3-2-2--3-5-3-5-0-2-3-2-2-

G:--------------------------------------
D:--------------------------------------
A:--------------------------------------
E:-3-5-3-5-0-2-3-2-2--3-5-3-5-0-2-3-2-2-

"Nod your head to this...":
===========================
[ Tab from: http://www.guitartabs.cc/tabs/0-9/311/plain_btab.html ]
G:----------------------------------------------------------
D:----------------------------------------------------------
A:----------------------------------------------------------
E:-0-0-0-0-2-3-2--0-0-0-0-2-3-2--0-0-0-0-2-3-2--0-0-0-0-2-3-

Verse:
======

G:--------------------------------------
D:--------------------------------------
A:--------------------------------------
E:-3-5-3-5-0-2-3-2-2--3-5-3-5-0-2-3-2-2-

G:--------------------------------------
D:--------------------------------------
A:--------------------------------------
E:-3-5-3-5-0-2-3-2-2--3-5-3-5-0-2-3-2-2-

"You can ask my home team...":
==============================

G:-----------------------------------------
D:-----------------------------------------
A:-----------------------------------------
E:-5--------------------5------------------
   |  hold & slide  |   |  hold & slide  |

Verse:
======

G:--------------------------------------
D:--------------------------------------
A:--------------------------------------
E:-3-5-3-5-0-2-3-2-2--3-5-3-5-0-2-3-2-2-

G:--------------------------------------
D:--------------------------------------
A:--------------------------------------
E:-3-5-3-5-0-2-3-2-2--3-5-3-5-0-2-3-2-2-

"Table Rosa, is my brain...":
=============================

G:--------------------------------5-5-----------------------------
D:-------5--7-7------------5--7-7-----------5--7-7------------9-7-
A:-----5--------5--------5----------------5--------7--------9-----
E:-3-3------------5--3-3--------------3-3------------5--7-7-------

Verse:
======

G:--------------------------------------
D:--------------------------------------
A:--------------------------------------
E:-3-5-3-5-0-2-3-2-2--3-5-3-5-0-2-3-2-2-

G:--------------------------------------
D:--------------------------------------
A:--------------------------------------
E:-3-5-3-5-0-2-3-2-2--3-5-3-5-0-2-3-2-2-

"Nod your head to this...":
===========================

G:----------------------------------------------------------
D:----------------------------------------------------------
A:----------------------------------------------------------
E:-0-0-0-0-2-3-2--0-0-0-0-2-3-2--0-0-0-0-2-3-2--0-0-0-0-2-3-

"Don't you know that...":
=========================

G:-------------------------
D:-------------------5-5h7-
A:--------------5h7--------
E:-5-5-5-5-5-5-------------  (x4)

G:--------------------------------
D:--------------------------------
A:--------------------------------
E:-0-0-0-0-2-3-2--0-0-0-0-2-0-5-7-


== Last Updated - April 7, 1996 ==

Comments