311 - Other Side Of Things Chords & Tabs

 

Other Side Of Things Chords & Tabs

311 Chords & Tabs

Version: 1 Type: Tab 0 ratings
1 star 2 stars 3 stars 4 stars 5 stars
comments

Other Side Of Things Tab

Other Side of Things
311

Intro/Verse:
e:-------------------------------------------------------------
B:-------------------------------------------------------------
G:-4----7----9----5----4----7----9----5------------------------
D:-4----7----9----5----4----7----9----5------------------------
A:-2----5----7----3----2----5----7----3------------------------
E:-2----5----7----3----2----5----7----3------------------------

Once in each verse there's a slight pause, the two chords are the same but the
rhythm changes so watch for that.

Lead-in to Chorus:
e:-------------------------------------------------------------
B:-------------------------------------------------------------
G:--4----2-----------------------------------------------------
D:--4----2----5----4-------------------------------------------
A:--2----0----5----4-------------------------------------------
E:--2----0----3----2-------------------------------------------


Chorus:
e:-------------------------------------------------------------
B:-------------------------------------------------------------
G:-4--4--x--4/9--x--9--9----4--x--4/9--x--9--9-----------------
D:-4--4--x--4/9--x--9--9----4--x--4/9--x--9--9-----------------
A:-2--2--x--2/7--x--7--7----2--x--2/7--x--7--7-----------------
E:-2--2--x--2/7--x--7--7----2--x--2/7--x--7--7-----------------

     
e:-------------------------------------------------------------
B:-------------------------------------------------------------
G:-7----6----4--x--x--4--4--7----6----4--x--x--4--(6)--4-------
D:-7----6----4--x--x--4--4--7----6----4--x--x--4--(6)--4-------
A:-5----4----2--x--x--2--2--5----4----2--x--x--2--(4)--2-------
E:-5----4----2--x--x--2--2--5----4----2--x--x--2--(4)--2-------

This entire thing repeats twice for each chorus (the C#/G# in parenthesis on the
repeat leading into the bridge only), then:
[ Tab from: http://www.guitartabs.cc/tabs/0-9/311/other_side_of_things_tab.html ]
Bridge:
 
e:-------------------------------------------------------------
B:-------------------------------------------------------------
G:--3--x--3--x--3--x-----------6--x--6--x--6--x----------------
D:--3--x--3--x--3--x--4--4--4--6--x--6--x--6--x--6--6--6-------
A:--1--x--1--x--1--x--4--4--4--4--x--4--x--4--x--6--6--6-------
E:--1--x--1--x--1--x--2--2--2--------------------4--4--4-------
  
e:-------------------------------------------------------------
B:-------------------------------------------------------------
G:--3--x--3--x--3--x-----------6--x--6--x--6--x----------------
D:--3--x--3--x--3--x--4--4--4--6--x--6--x--6--x--6--8--6-------
A:--1--x--1--x--1--x--4--4--4--4--x--4--x--4--x--6--8--6-------
E:--1--x--1--x--1--x--2--2--2--------------------4--6--4-------
 
e:-------------------------------------------------------------
B:-------------------------------------------------------------
G:--3--x--3--x--3--x-----------6--x--6--x--6--x----------------
D:--3--x--3--x--3--x--4--4--4--6--x--6--x--6--x--6--6--6-------
A:--1--x--1--x--1--x--4--4--4--4--x--4--x--4--x--6--6--6-------
E:--1--x--1--x--1--x--2--2--2--------------------4--4--4-------
 
e:-------------------------------------------------------------
B:-------------------------------------------------------------
G:--3--x--3--x--3--x-----------4----2--------------------------
D:--3--x--3--x--3--x--4--4--4--4----2----5----4----------------
A:--1--x--1--x--1--x--4--4--4--2----0----5----4----------------
E:--1--x--1--x--1--x--2--2--2--2----0----3----2----------------

Interlude:
Guitar 1 (Played 4 times):
e:-------------------------------------------------------------
B:-------------------------------------------------------------
G:-------------------------------------------------------------
D:---------------------------------------------(4--6--4)-------
A:-/6--4--1h2r1-1------------------------------(4--6--4)-------
E:----------------2-2-2---2-2-4---2h4r2--2-2---(2--4--2)-------

Guitar2 (Joins on the third and fourth time):
e:-------------------------------------------------------------
B:-------------------------------------------------------------
G:---------------------------------------------(3--5--3)-------
D:-/5--3--0h1r0-0------------------------------(3--5--3)-------
A:----------------1-1-1---1-1-3---1h3r1-1-1----(1--3--1)-------
E:-------------------------------------------------------------

()'s replace the last portion on the 4th go around leading back into the final bridge

In the last bridge let all the power chords ring instead of scratching.

Outro:
e:-------------------------------------------------------------
B:-------------------------------------------------------------
G:--4----2--------------4----2--------------7~-----------------
D:--4----2----5----4----4----2----5----4----7~-----------------
A:--2----0----5----4----2----0----5----4----5~-----------------
E:--2----0----3----2----2----0----3----2----5~-----------------
Comments