311 - Omaha Stylee Chords & Tabs

 

Omaha Stylee Chords & Tabs

311 Chords & Tabs

Version: 2 Type: Bass Tab 0 ratings
1 star 2 stars 3 stars 4 stars 5 stars
comments

Omaha Stylee Bass Tab

   
'Omaha Stylee' -- Bass Tab
Performed by 311
From the album "Grassroots" on Capricorn Records
Music by:  N. Hexum
Lyrics by:  N. Hexum and D. Martinez
(c) 1994 Allegiance Music/Hydroponic Music BMI
---------------
Tabbed by: Jeremy Daw (summit@rideau.net)
           Justin Reynolds (iLLiHeXiLL@aol.com)
The 311 Guitar Archive -- http://chromosome.colorado.edu/311archive/Home.html

[Version 1:]

Intro:
======

G:---------------
D:---------------
A:-2--3--------0-
E:-------3--0----
B:---------------


Riff 1:
=======

G:------------------------------------------------------
D:------------------------------------------------------
A:-0-0-3-6-5--0-0-3-6-5-3-5-3--0-0-3-6-5--0-3-6-5-3-6-3-
E:------------------------------------------------------
B:------------------------------------------------------


Riff 2:
=======

G:-----------------
D:-----------------
A:---0---0-2-3-2-0-
E:-1---1-----------
B:-----------------


Riff 3:
=======

G:---------------------
D:---------------------
A:---------------------
E:-0-5-0-3-0-5-0-3-0-5-
B:---------------------


Riff 4:
=======

G:--------------------------------------------
D:--------------------------------------------
A:--------------------------------------------
E:-3-3-3-3-3-3-3-3-3-3-3-3--5-3-5-3-5-3-5-3-5-
B:--------------------------------------------


Riff 5a:
========

G:------------------------------------------
D:--------2-------------------------------2-
A:-3---5-----3-----3-------0--3---3----5----
E:--------------5------1--------------------
B:------------------------------------------


Riff 5b (slap):
===============

G:-----------------------------------------------
D:-------xx2---------------------------------xx2-
A:-3xxxx5---xxx3-----xx3----xxxx0xx3xxx3xxxx5----
E:--------------xxxx5---xxx1---------------------
B:-----------------------------------------------


Riff 6a:
========

G:--------------------------------------------------
D:--------------------------------------------------
A:--------------------------------------------------
E:-0--3--0--3-4-5--5-3-2-3-0-2---0--3-0-3-4-5--3--3-
B:--------------------------------------------------


Riff 6b:
========

G:-------------------------------------------------------
D:--------------------------------------------harmonics--
A:---------------------------------------------v-v-v-v---
E:-0--3--0--3-4-5--5-3-2-3-0-2---0--3-0-3-4-5--5-5-5-5---
B:---------------------------------------------^-^-^-^---


Riff 7:
=======
[ Tab from: http://www.guitartabs.cc/tabs/0-9/311/omaha_stylee_btab_ver_2.html ]
G:-------------------------------------------------------------
D:-------------------------------------------------------------
A:-------------------------------------------------------------
E:-2-2-2-2-5-5-5-5-4-4-4--4-4--4-2-2-2-2-5-5-5-5-4-4-4--4-4--4-
B:-------------------------------------------------------------


Riff 8:
=======

G:---------------------------------
D:---------------------------------
A:---------------------------------
E:-0--0-0-0----3----0--0-0-0----3--
B:---------------------------------

G:------------------------------------------------
D:----------------2-0---0-------------------------
A:--------------------2---2-0-2-0---0-------------
E:-0--0-0-0----3------------------3---3-2-3-2-0-2-
B:------------------------------------------------


Riff 9:
=======

G:---------------------------------
D:-2-0---0-------------------------
A:-----2---2-0-2-0---0-------------
E:-----------------3---3-2-3-2-0-2-
B:---------------------------------


End Part:
=========

G:----------------
D:----------------
A:----------------
E:-0--3--0--3-4-5-
B:----------------


[Version 2:]


Intro:
======

G:---------------
D:---------------
A:-2--3----------
E:-------3--0--5-


Riff 1:
=======

G:--------------------------------------------------------------
D:--------1-----------1-------------------1--------1------------
A:------3---5-------3---5--5--3--3------5---3----5---5--3--3--3-
E:-5-5----------5-5-----------------5-5--------5----------------


Riff 2:
=======

G:-----------------
D:-----------------
A:---0---0-2-3-2-0-
E:-1---1-----------


Riff 3:
=======

G:---------------------
D:---------------------
A:---------------------
E:-0-5-0-3-5-0-5-0-3-0-


Riff 4:
=======

G:-------------------------------------------
D:-------------------------------------------
A:-------------------------------------------
E:-3-3-3-3-3-3-3-3-3-3-3-3-5-3-5-3-5-3-5-3-5-


Riff 5:
=======

G:--------------------------------------------------
D:-----3-5-2----------------------------------3-5-2-
A:-3-5-------3--3--3-------------3-3-3-3-3--5-------
E:--------------------1-1-1-1-1---------------------


Riff 6:
=======

G:--------------------------------------------------
D:--------------------------------------------------
A:--------------------------------------------------
E:-0--3--0--3-4-5--5-3-2-3-0-2---0--3-0-3-4-5--3--3-


Riff 7:
=======

G:-------------------------------------------------------------
D:-------------------------------------------------------------
A:-------------------------------------------------------------
E:-2-2-2-2-5-5-5-5-4-4-4--4-4--4-2-2-2-2-5-5-5-5-4-4-4--4-4--4-


Riff 8:
=======

G:--------------------------------------
D:-2------------------------------------
A:----5--2-5---2---2--------------------
E:---------------5----5-3-5-3-2-3-2-0-2-


== Last Updated:  November 23, 1997 ==
Comments