311 - Nix Hex Chords & Tabs

 

Nix Hex Chords & Tabs

311 Chords & Tabs

Version: 2 Type: Tab 0 ratings
1 star 2 stars 3 stars 4 stars 5 stars
comments

Nix Hex Tab

   
 



311-Nix Hex



Riff 1:
=======
   N.C.
1:-----------------------------------------------------
2:-----------------------------------------------------
3:-b5b-3-5-3-------------------3-----------------------
4:-----------5-5-0-3-5-0-5-3-0----5-0-3-5-0-5-3-0------
5:------------------------------------------------3//1-             
6:-----------------------------------------------------

   N.C.                                *******
1:---------------------------------------------
2:---------------------------------------------
3:-----------------3-------------3-5-3---------
4:-5-0-3-5-0-5-3-0----5-0-3-5-0--------3-2-----
5:-----------------------------------------3-2-
6:---------------------------------------------

  - or -
 
   N.C.
1:-------------------------------------------
2:-------------------------------------------
3:-----------------b3b-----------------------
4:-5p3---3-5-5p3--------5p3---3-5-5p3--------
5:-----5---------5----------5---------5-3//1-
6:-------------------------------------------

   N.C.                                  *******
1:-----------------------------------------------
2:-----------------------------------------------
3:-----------------b3b-------------3-5-3---------
4:-5p3---3-5-5p3--------5p3---3-5--------3-2-----
5:-----5---------5----------5----------------3-2-
6:-----------------------------------------------

(The part between the *'s is played by both the bass and the guitar (?))

Riff 2:
=======
   Gm    Em7dim5
1:-3-----3-
2:-3-----3-
3:-3-----3-
4:-5-----2-
5:---------
6:---------

Riff 3:
=======
   D6   C6
1:-7-7--5-
2:-7-7--5-
3:-7-7--5-
4:--------
5:--------
6:--------

Riff 4 (w/Distortion):
======================
   N.C.
1:-----------------------------------------
2:----------------------------------------- 
3:-----------------------------------------
4:-----------------------------------------
5:-----------------1-------------------3-1-
6:-1-3-1-3-1-3-1-3---1-3-1-3-1-3-1-3-1-----
[ Tab from: http://www.guitartabs.cc/tabs/0-9/311/nix_hex_tab_ver_2.html ]
   N.C.
1:---------------------------------------------
2:-------------------------------------b5b-----
3:-------------------------------------b5b-----
4:---------------------------------------------
5:-----------------1-----------------------3-1-
6:-1-3-1-3-1-3-1-3---1-3-1-3-1-3-1-3-1---------

Riff 5:
=======
   Gm         N.C.
1:-3--3-3-3---------3-----
2:-3--3-3-3-----5h6---6-5-
3:-3--3-3-3---5-----------
4:-5--5-5-5---------------
5:------------------------
6:------------------------
              ***********
* - Let this part ring; awkward to play.

Solo:
=====
   N.C.
1:----------------------------------------------------------------------
2:-12h13p12----------12h13p12-------------12-13-15-13-12-12-13-15-13-12-
3:----------14-12-12----------14-12-12-14-------------------------------
4:----------------------------------------------------------------------
5:----------------------------------------------------------------------
6:----------------------------------------------------------------------

   N.C.                                     Bb5
1:------------------------------------------13-13-13-13-13-13-13-13-13-13-
2:-13-------------12-------12-13-12---------11-11-11-11-11-11-11-11-11-11-
3:----14-14-14-14----14-14----------14-12---------------------------------
4:------------------------------------------------------------------------
5:------------------------------------------------------------------------
6:------------------------------------------------------------------------

   Bb5              N.C.
1:-13-13-13-13-13------------------------------------b15b--15--b15b-
2:-11-11-11-11-11---15-15----13-b15b-------13-13--13----------------
3:------------------------14---------14-14--------------------------
4:------------------------------------------------------------------
5:------------------------------------------------------------------
6:------------------------------------------------------------------

Ending:
=======
   Gm     (Gm/A)
1:-3---3-----------
2:-3---3---------3-
3:-3---3-------3---
4:-5---5-----5-----
5:---------0-------
6:-----------------


 
Comments