311 - Misdirected Hostility Chords & Tabs

 

Misdirected Hostility Chords & Tabs

311 Chords & Tabs

Version: 1 Type: Bass Tab 0 ratings
1 star 2 stars 3 stars 4 stars 5 stars
comments

Misdirected Hostility Bass Tab

"Misdirected Hostility" by 311
brought to you in part by John Harvey


G------------------------------------------------------------------------------------------
C------------------------------------------------------------------------------------------
A-----5---0---3-0---5--------------------------------------------------------------------
E------------------------------------------------------------------------------------------
[ Tab from: http://www.guitartabs.cc/tabs/0-9/311/misdirected_hostility_btab.html ]
G------------------------------------------------------------------------------------------
C------------------------------------------------------------------------------------------
A-----1-1-1-1----1--3---1----------------------------------------------------------------
E---------------3--------------------------------------------------------------------------

G------------------------------------------------------------------------------------------
C------------------------------------------------------------------------------------------
A----------------------3-2-3-4-3-2-3---------------------3-2-3--3-2-3------------------
E-----0-1-0-1-1-0------------------------0-1-0-1-1-0------------------------------------

G-------------------------------------------------------------------------------------------
C-------------------------------------------------------------------------------------------
A-------------------------------------------------------------------------------------------
E-----1/-\-/-\-/-\----------------------------------------------------------------------------


-/-\- fast up and down strokes....
Comments