311 - Mindspin Chords & Tabs

 

Mindspin Chords & Tabs

311 Chords & Tabs

Version: 1 Type: Bass Tab 0 ratings
1 star 2 stars 3 stars 4 stars 5 stars
comments

Mindspin Bass Tab

   
bass tab:mindspin

by:311

tab by:evo6

album:soundsystem(1999)

i'm not sure what the tunning is so you can figure it out.

riff a:
g:--------------------------------------|
d:--------------------------------------|
a:--------------------------------------|
e:---------2222-4-22----------2222-56-56|
b:222-4444-----------222-4444-----------|

riff b:
g:-------------------|
d:-------------------|
a:-------------------|
e:---------00000-2222|
b:0000-222-----------|

riff c:
g:-------------------------------------------|
d:-------------------------------------------|
a:-------------------------------------------|
e:3-7-5-3-0-000-000-0-5-3-7-5-3-0-000-000-0-5|
b:-------------------------------------------|
[ Tab from: http://www.guitartabs.cc/tabs/0-9/311/mindspin_btab.html ]
g:-------------------------------------------|
d:-------------------------------------------|
a:-------------------------------------------|
e:3-7-5-3-0-222-000-22-22-3-7-5-3-333-111-000|
b:-------------------------------------------|
back to riffs a-c

riff d:
g:-----------------|     
d:-----------------|     
a:5-------3--------|     
e:-----------------|     
b:----------------2|

riff e:
g:---------------------------------------------------------------|
d:---------------------------------------------------------------|
a:---------------------------------------------------------------|
e:4-5-4-5-4-------4-5-4-5-4-------2-3-2-3-2-------2-3-2-3-2------|
b:--------5-4-6-------------5-4-6-----------3-2-4-----------3---2|
end:
g:-------------------|
d:-------------------|
a:-------------------|
e:------5-----------5|
b:2-----------2------|i'm not sure how many times you play this 
                      this was tabbed out of memory.
Comments