311 - Love Song Chords & Tabs

 

Love Song Chords & Tabs

311 Chords & Tabs

Version: 7 Type: Tab 0 ratings
1 star 2 stars 3 stars 4 stars 5 stars
comments

Love Song Tab

   
Title: Love Song
Band: 311
Album: 50 First Dates Soundtrack
Tuning: Standard
Tabbing by: Sean Konagaya




INTRO/BACKGROUND [This background is played the entire song]
(0:01) ...
Let this ring once  {Palm Mute-----------------------------------------}
|--7----------------|---5-5---3-3---1-1---0-0---5-5---3-3---1-1---0-0--|
|--5----------------|---5-5---3-3---1-1---0-0---5-5---3-3---1-1---0-0--|
|--5----------------|---7-7---5-5---3-3---0-0---7-7---5-5---3-3---0-0--|
|--7----------------|--------------------------------------------------|
|-------------------|--------------------------------------------------|
|-------------------|--------------------------------------------------|



RIFF 1
(0:15) ...
|-----------------------|
|-----------------------|
|--5-5/7-9-7-9-7-7\5-2--|
|-----------------------| 4x
|-----------------------|
|-----------------------|



BACKGROUND
(0:28) Whenever I'm Along With You ...
Let this ring once  {Palm Mute-----------------------------------------}
|--5----------------|---5-5---3-3---1-1---0-0---5-5---3-3---1-1---0-0--|
|--5----------------|---5-5---3-3---1-1---0-0---5-5---3-3---1-1---0-0--|
|--5----------------|---7-7---5-5---3-3---0-0---7-7---5-5---3-3---0-0--|
|--5----------------|--------------------------------------------------|
|-------------------|--------------------------------------------------|
|-------------------|--------------------------------------------------|



BACKGROUND [changes back to this]
(0:42) Whenever I'm Along With You ...
Let this ring once  {Palm Mute-----------------------------------------}
|--7----------------|---5-5---3-3---1-1---0-0---5-5---3-3---1-1---0-0--|
|--5----------------|---5-5---3-3---1-1---0-0---5-5---3-3---1-1---0-0--|
|--5----------------|---7-7---5-5---3-3---0-0---7-7---5-5---3-3---0-0--|
|--7----------------|--------------------------------------------------|
|-------------------|--------------------------------------------------|
|-------------------|--------------------------------------------------|



RIFF 2
(0:56) ...                     Play this the 3rd time
|--5/7-8-8-7-5-7-7-5-5\3-0-0--|--0--------------------|
|-----------------------------|----3-1--1-1-1-1-------|
|-----------------------------|-----------------------|
|-----------------------------|-----------------------|
|-----------------------------|-----------------------| 3x
|-----------------------------|-----------------------|



CHORUS [Figure out rythem yourself]
(1:37)
F           G
However far away 

Am
I will always love you 

F            G
However long I stay 

Am
I will always love you 
[ Tab from: http://www.guitartabs.cc/tabs/0-9/311/love_song_tab_ver_7.html ]
F              G 
Whatever words I say 

Am
I will always love you 

F             G
I will always love you 



RIFF 2
(2:01) ...                     Play this the 3rd time
|--5/7-8-8-7-5-7-7-5-5\3-0-0--|--0--------------------|
|-----------------------------|----3-1--1-1-1-1-------|
|-----------------------------|-----------------------|
|-----------------------------|-----------------------|
|-----------------------------|-----------------------| 3x
|-----------------------------|-----------------------|



RIFF 2 EXTENTSION
(2:15)
|--7-7-7-7------7-7-7-7---------7-7-7-7------7-7-8-10---------|
|----------8-8----------8-8-8-----------8-8-----------8-8-----|
|-------------------------------------------------------------|
|-------------------------------------------------------------|
|-------------------------------------------------------------|
|-------------------------------------------------------------|

|--5-5-5--------------------------------|
|--------4/5-3-1-3-1-1-1-1-3-1-0-0------|
|----------------------------------0-2--|
|---------------------------------------|
|---------------------------------------|
|---------------------------------------|



BACKGROUND OFF
(2:29) Whenever I'm Along With You ...



BACKGROUND BACK ON [But without the Palm Muting part, only the Harmonics]
(2:42) Whenever I'm Along With You ...
Let this ring once
|--5----------------|
|--5----------------|
|--5----------------|
|--5----------------|
|-------------------|
|-------------------|



BACKGROUND [changes back to this]
(0:42) Whenever I'm Along With You ...
Let this ring once  {Palm Mute-----------------------------------------}
|--7----------------|---5-5---3-3---1-1---0-0---5-5---3-3---1-1---0-0--|
|--5----------------|---5-5---3-3---1-1---0-0---5-5---3-3---1-1---0-0--|
|--5----------------|---7-7---5-5---3-3---0-0---7-7---5-5---3-3---0-0--|
|--7----------------|--------------------------------------------------|
|-------------------|--------------------------------------------------|
|-------------------|--------------------------------------------------|



CHORUS [Figure out rythem yourself]
(2:55)
F           G
However far away 

Am
I will always love you 

F            G
However long I stay 

Am
I will always love you 

F              G
Whatever words I say 

Am
I will always love you 

F             G
I will always love you



(!)NOTE: There are tiny parts that has one note's ring with wah wah and echo
effects that I have not included in this tab, because of its unimportance to
the song.


--


Email me at MeeCexii@hotmail.com for comments
Comments