311 - Love Song Chords & Tabs

 

Love Song Chords & Tabs

311 Chords & Tabs

Version: 2 Type: Tab 0 ratings
1 star 2 stars 3 stars 4 stars 5 stars
comments

Love Song Tab

   
-------------------------------------------------------------------------------
LOVE SONG - 311
-------------------------------------------------------------------------------
Tabbed by: Salah Salem
Email: djphrut87@yahoo.com

Tuning: standard [EADGBe]

| /  slide up
| \  slide down
| h  hammer-on
| p  pull-off
| ~  vibrato
| +  harmonic
| x  Mute note
===============================================================================

First riff goes like:
Listen for how many times played Im too lazy
e|---------------------------------------------------------------------------|
B|-----13/5-3-5-3-1---------------------------------------------------------|
G|--2----------------2-------------------------------------------------------|
D|---------------------------------------------------------------------------|
A|---------------------------------------------------------------------------|
E|---------------------------------------------------------------------------|

Or like this
[ Tab from: http://www.guitartabs.cc/tabs/0-9/311/love_song_tab_ver_2.html ]
e|---------------------------------------------------------------------------|
B|---------------------------------------------------------------------------|
G|------5-7/9-7-9-7-5--------------------------------------------------------|
D|----7---------------7------------------------------------------------------|
A|---------------------------------------------------------------------------|
E|---------------------------------------------------------------------------|


Then 30 seconds of samples comes then:

e|-----5h7-9-9-7-5-7-7-5-3-0-------------------------------------------------|
B|---------------------------------------------------------------------------|
G|---------------------------------------------------------------------------|
D|---------------------------------------------------------------------------|
A|---------------------------------------------------------------------------|
E|---------------------------------------------------------------------------|

then

e|-----5h7-9-9-7-5-7-7-5-3-0-------------------------------------------------|
B|----------------------------3-111111---------------------------------------|
G|---------------------------------------------------------------------------|
D|---------------------------------------------------------------------------|
A|---------------------------------------------------------------------------|
E|---------------------------------------------------------------------------|

Sorry, but that's all I got for now. You can all probably figure out the rest
urselves. Peace in the middle east. Word to my homie Moose. And if u don't like
this tab, email me or shut up.
Comments