311 - Love Song Chords & Tabs

 

Love Song Chords & Tabs

311 Chords & Tabs

Version: 3 Type: Bass Tab 0 ratings
1 star 2 stars 3 stars 4 stars 5 stars
comments

Love Song Bass Tab

   
----------------------------------------------------------------------------
			     LOVE SONG - 311
----------------------------------------------------------------------------

Tabbed By : 
e-mail: 

Tuning:Standard
[ Tab from: http://www.guitartabs.cc/tabs/0-9/311/love_song_btab_ver_3.html ]
 Verse
G|-----------------------------------------------------------------------|
D|-7-77910-----------9--------10-97------9--10---------------------------|
A|-0-------1010-1212----8-88--------7-77--7------------------------------|
E|-----------------------------------------------------------------------|

 Chorus
G|------------------------------------99-1010----------------|
D|----------------------7-77-79--1010------------------------|
A|--8-888--810---1010----------------------------------------|
E|-----------------------------------------------------------|
Comments