311 - Love Song Chords & Tabs

 

Love Song Chords & Tabs

311 Chords & Tabs

Version: 1 Type: Bass Tab 0 ratings
1 star 2 stars 3 stars 4 stars 5 stars
comments

Love Song Bass Tab

311 - Love song

This is a relatively easy song to play.
I'm not gonna claim that this tab is perfect, but this is how I play it

Intro
[ Tab from: http://www.guitartabs.cc/tabs/0-9/311/love_song_btab.html ]
G: ---------------------------------------------------
D: ---------------------------------------------------
A: --0-0-023-------55-3------320-----3333-------------
E: ----------3-3-3-------1-1-----000------------------

Chorus

G: ---------------------------------------------------
D: --------------------------------2222---------------
A: ------------------0-0-000--333---------------------
E: -1-1-111--3-3-333----------------------------------
Comments