311 - Loco Chords & Tabs

 

Loco Chords & Tabs

311 Chords & Tabs

Version: 1 Type: Bass Tab 0 ratings
1 star 2 stars 3 stars 4 stars 5 stars
comments

Loco Bass Tab

'Loco' -- Bass Tab
Performed by 311
From the album "311" on Capricorn Records
Music by:  T. Mahoney
Lyrics by:  N. Hexum
(c) 1995 Allegiance Music/Hydroponic Music BMI
---------------
Tabbed by: Justin Reynolds (iLLiHeXiLL@aol.com)
The 311 Guitar Archive -- http://chromosome.colorado.edu/311archive/Home.html

* Follows the guitar, for the most part *
[ Tab from: http://www.guitartabs.cc/tabs/0-9/311/loco_btab.html ]
Riff 1:
=======
   
G:--------------------------
D:--------------------------
A:------------0-4-----0-4-2-
E:-0-1-2-0-2-------2--------


Riff 2:
=======
   
G:-------------------------------
D:-------------------------------
A:--------2-4-2------------------
E:-0-2-4---------4---0-2-0-4-4-2-


Riff 3:
=======

G:--------------------------
D:--------------------------
A:--------------0--1---2----
E:-0--1--2---2------------2-


== Last Updated:  January 8, 1997 ==
Comments