311 - Little Brother Chords & Tabs

 

Little Brother Chords & Tabs

311 Chords & Tabs

Version: 1 Type: Tab 0 ratings
1 star 2 stars 3 stars 4 stars 5 stars
comments

Little Brother Tab

   
"Little Brother" aka "Ali-G" by: 311
Music by: Nick Hexum, Tim Mahoney, Chad Sexton, Aaron Wills, Doug Martinez
Lyrics by: Nick Hexum, Doug Martinez

This is one of the new demos off of 311's upcoming album entitled "Don't Tread On Me".

Tabbed by: Chris Gill		
Email: CGill1403@aol.com	

Tuning: E A D G B E


e|----------------------------------------------|
B|----------------------------------------------|
G|----------------------------------------------|
D|--2----2------5----5------4----4------3----3--| x4
A|----------------------------------------------|
E|----------------------------------------------|
PM............................................

Hey little brother, you've got so much to discover.
Can't you conceptualize what you're doing to our mother?
e|----------------------------------------------|
B|----------------------------------------------|
G|----------------------------------------------|
D|--2----2------5----5------4----4------3----3--| x4
A|----------------------------------------------|
E|----------------------------------------------|
PM............................................

Those drugs that you choose leave you left with the blues.
Trust me I've been there to me its old news.
Pending disaster, you're heading there faster,
it's tearing me up to know you get so plastered.
e|-------------------------------------------------|
B|-------------------------------------------------|
G|--4---4---4---7---7---7---6---6---6---5---5---5--|
D|--2---2---2---5---5---5---4---4---4---3---3---3--| x4
A|-------------------------------------------------|
E|-------------------------------------------------|
PM................................................

e|---------------------------|
B|---------------------------|
G|-----8--5------------------|
D|--5--------5--7--5--6--8^--|
A|---------------------------|
E|---------------------------|

Because you're caught up in the scene at the age of 19.
Maybe so was I at that age but I had a dream and
those god damn powdered drugs they'll fill you with doubt.
You're just getting sucked on up in it and you have to break out.
e|----------------------------------------------|
B|----------------------------------------------|
G|----------------------------------------------|
D|--2----2------5----5------4----4------3----3--| x4
A|--2----2------5----5------4----4------3----3--|
E|--0----0------3----3------2----2------1----1--|
PM.............................................

Blacked out on the floor you told me,
the next day they found you that way.
Those damn medications had your back baby.
It hurt when they took em all away.
e|-------------------------------------------------|
B|-------------------------------------------------|
G|-------------------------------------------------|
D|--2-x-2-x-2---5-x-5-x-5---4-x-4-x-4---3-x-3-x-3--| x4
A|--2-x-2-x-2---5-x-5-x-5---4-x-4-x-4---3-x-3-x-3--|
E|--0-x-0-x-0---3-x-3-x-3---2-x-2-x-2---1-x-1-x-1--|
PM................................................

You're feeling so bad
You're looking for a place to land
Will we understand,
how the hell it got so out of hand?
e|-----------------------------------------------|
B|-----------------------------------------------|
G|-----------------------------------------------|
D|-----------------------------------------------| x4
A|--------5-----5--8--7-7------5--7--8--5--8--7--|
E|--5--7-----7--------------7--------------------|

                                   last chord is clean
                                      |
                                      V
e|------------------------------------0--|
B|------------------------------------0--|
G|------------------------------------0--|
D|--2--2----2--2----2----2---2--2--2--2--|
A|--2--2----2--2----2----2---2--2--2--2--|
E|--0--0----0--0----0----0---0--0--0--0--|
PM..................................
[ Tab from: http://www.guitartabs.cc/tabs/0-9/311/little_brother_tab.html ]
I know that it's hard, 
but you're risking being permanently scarred.
You're hurting inside,
but you're flirting with tragedy on the dark side.
e|----------------------------------------------|
B|----------------------------------------------|
G|----------------------------------------------|
D|--2----2------5----5------4----4------3----3--| x4
A|----------------------------------------------|
E|----------------------------------------------|
PM............................................

Those drugs that you choose leave you left with the blues.
Trust me I've been there to me its old news.
Hey little brother, you've messed up another chance.
Sooner or later you must take a stand.
e|-------------------------------------------------|
B|-------------------------------------------------|
G|--4---4---4---7---7---7---6---6---6---5---5---5--|
D|--2---2---2---5---5---5---4---4---4---3---3---3--| x4
A|-------------------------------------------------|
E|-------------------------------------------------|
PM................................................

e|----------------------------|
B|----------------------------|
G|------8--5--------------8^--|
D|---5--------5--7--5--6------|
A|----------------------------|
E|----------------------------|

At the edge of it all, 
where it begins to consume that rotting to it's very end.
How much time is left? Will it collapse?
Will you confess you're in a spiritless void,
spinning on nowhere sense? 
e|----------------------------------------------|
B|----------------------------------------------|
G|----------------------------------------------|
D|--2----2------5----5------4----4------3----3--| x4
A|--2----2------5----5------4----4------3----3--|
E|--0----0------3----3------2----2------1----1--|
PM.............................................

Blacked out on the floor you told me,
the next day they found you that way.
Those damn medications had your back baby.
It hurt when they took em all away.
e|-------------------------------------------------|
B|-------------------------------------------------|
G|-------------------------------------------------|
D|--2-x-2-x-2---5-x-5-x-5---4-x-4-x-4---3-x-3-x-3--| x4
A|--2-x-2-x-2---5-x-5-x-5---4-x-4-x-4---3-x-3-x-3--|
E|--0-x-0-x-0---3-x-3-x-3---2-x-2-x-2---1-x-1-x-1--|
PM................................................

You're feeling so bad
You're looking for a place to land
Will we understand,
how the hell it got so out of hand?
e|-----------------------------------------------|
B|-----------------------------------------------|
G|-----------------------------------------------|
D|-----------------------------------------------| x4
A|--------5-----5--8--7-7------5--7--8--5--8--7--|
E|--5--7-----7--------------7--------------------|

e|---------------------------------------------------------------------------|
B|---------------------------------------------------------------------------|
G|---------------------------------------------------------------------------|
D|--2--2----2--2----2----2---2--2--2-----------------------------------------|
A|--2--2----2--2----2----2---2--2--2-----------------------------------------|
E|--0--0----0--0----0----0---0--0--0-----------------------------------------|
PM..................................

e|-------------------------------------------------|
B|-------------------------------------------------|
G|-------------------------------------------------|
D|--2-x-2-x-2---5-x-5-x-5---4-x-4-x-4---3-x-3-x-3--| x4
A|--2-x-2-x-2---5-x-5-x-5---4-x-4-x-4---3-x-3-x-3--|
E|--0-x-0-x-0---3-x-3-x-3---2-x-2-x-2---1-x-1-x-1--|
PM................................................

                                last chord clean again
                                    |
                                    V
e|-------------------------------------|
B|----------------------------------4--|
G|--7---7---7---7---7---7---7---7---7--|
D|--7---7---7---7---7---7---7---7---7--|
A|--5---5---5---5---5---5---5---5---5--|
E|-------------------------------------|

Excellent song, I cant wait for the mastered version

| /  slide up
| \  slide down
| h  hammer-on
| p  pull-off
| ~  vibrato
| +  harmonic
| x  Mute note
| ^  Bend note
===============================================================================
Comments