311 - Light Years Chords & Tabs

 

Light Years Chords & Tabs

311 Chords & Tabs

Version: 2 Type: Bass Tab 0 ratings
1 star 2 stars 3 stars 4 stars 5 stars
comments

Light Years Bass Tab

'Light Years' -- Bass Tab
Performed by 311
From the album "Transistor" on Capricorn/Mercury Records
Music by:  N. Hexum
Lyrics by:  N. Hexum 
(c) 1997 Hydroponic Music BMI
---------------
Tabbed by: Jeremy Daw (summit@rideau.net)
The 311 Guitar Archive -- http://chromosome.colorado.edu/311archive/Home.html


Main Riff:
==========
[ Tab from: http://www.guitartabs.cc/tabs/0-9/311/light_years_btab_ver_2.html ]
G:----------------------------------------------------------------
D:----------------------2-----------------------------------------
A:--------2-2-2--0--0-0-------2--2--2-2-0-------1-2---1-2-1-0-----
E:-0--0-0-----------------0-0-------------3-2-0-----0---------3-2-
B:----------------------------------------------------------------


Main Riff(variation):
=====================

G:--------------------------------------------------------
D:----------------2---------------------------------------
A:------2----0--------2--2--2-2-0-------1-2---1-2-1-0-----
E:-0------------------------------3-2-0-----0---------3-2-
B:--------------------------------------------------------

End:
====

G:-----
D:-----
A:-----
E:-0---
B:-----


== Last Updated:  November 4, 1997 ==
Comments