311 - Lifes Not A Race Chords & Tabs

 

Lifes Not A Race Chords & Tabs

311 Chords & Tabs

Version: 1 Type: Bass Tab 0 ratings
1 star 2 stars 3 stars 4 stars 5 stars
comments

Lifes Not A Race Bass Tab

   
song:life's not a race

by:311
tabbed by:p-nutt


comments:no has tabbed this song so i went ahead and tabbed it out
its really ez once you get the rythem of the song.

riff1 when nick sings
g:--------------|
d:--------------|
a:--------------|
e:5-555-5-5-5-55|
b:--------------|x12
[ Tab from: http://www.guitartabs.cc/tabs/0-9/311/lifes_not_a_race_btab.html ]
when s.a.sings
g:----------------|
d:----------------|
a:-----------7-5-7|
e:5-5-77-6-6------|
b:----------------|x4

when nick sings
g:----------------|
d:----------------|
a:----------------|
e:2-02-2----------|
b:-------0-0-4-5-4|

g:-----------|
d:--------5--|
a:--5---3----|
e:3---3-----0|
b:-----------|sometimes switch down to the b,e,a string.
Comments