311 - Let The Cards Fall Chords & Tabs

 

Let The Cards Fall Chords & Tabs

311 Chords & Tabs

Version: 3 Type: Bass Tab

Let The Cards Fall Bass Tab

   
Artist: 311
Song: Let the Cards Fall
Album: 311 B-side (1995)
Bassist: P-Nut
Tuning: B-E-A-D-G


Intro:
G|--------------------------|
D|--------------------------|
A|--5--5-5----7-5-5--7---7--|
E|----------7----------7----|
B|--------------------------| (x8)

G|-------------------------------|
D|-------------------------------|
A|-------------------------7-10--|
E|--6--6--6---5-6--6--6--8-------|
B|-------------------------------|

G|--------------------------|
D|--------------------------|
A|--5--5-5----7-5-5--7---7--|
E|----------7----------7----|
B|--------------------------|

G|----------4---------------0----------------------|
D|-----0--4---4-0--------0-----0-------------------|
A|--2-----------------2----------2--------------3--|
E|-----------------3----------------5---5---5------|
B|-------------------------------------------------|

G|--------------------------|
D|--------------------------|
A|--5--5-5----7-5-5--7---7--|
E|----------7----------7----|
B|--------------------------|


Verse 1:
G|-----------------------------|
D|-----------------------------|
A|--5-5--5--5--5--5--5-x7---7--|
E|------------------------7----|
B|-----------------------------| (x4)

G|------------------------------------------------------|
D|-------------------------8----------------------------|
A|-----------------------5------------------------7-10--|
E|--6-6--6--6-6--6--6--6-----6-6--6--6-6--6--6--6-------|
B|------------------------------------------------------|

G|-----------------------------|
D|-----------------------------|
A|--5-5--5--5--5--5--5-x7---7--|
E|------------------------7----|
B|-----------------------------| (x2)


Chorus:
G|-----------------------4---------------------------0---------------------------|
D|---------0-0--0-4-4--4---4-0----------------0-0--0---0-------------------------|
A|--2-2--2-----------------------------2-2--2------------2---0-0---0-0---0-0--3--|
E|------------------------------3-3--3-------------------------------------------|
B|-------------------------------------------------------------------------------|


Verse 2:
G|-----------------------------|
D|-----------------------------|
A|--5-5--5--5--5--5--5-x7---7--|
E|------------------------7----|
B|-----------------------------| (x2)
[ Tab from: http://www.guitartabs.cc/tabs/0-9/311/let_the_cards_fall_btab_ver_3.html ]
   Vocals Enter

G|-----------------------------|
D|-----------------------------|
A|--5-5--5--5--5--5--5-x7---7--|
E|------------------------7----|
B|-----------------------------| (x4)

G|------------------------------------------------------|
D|-------------------------8----------------------------|
A|-----------------------5------------------------7-10--|
E|--6-6--6--6-6--6--6--6-----6-6--6--6-6--6--6--6-------|
B|------------------------------------------------------|

G|-----------------------------|
D|-----------------------------|
A|--5-5--5--5--5--5--5-x7---7--|
E|------------------------7----|
B|-----------------------------| (x2)


Chorus:
G|-----------------------4---------------------------0----------------------------------|
D|---------0-0--0-4-4--4---4-0----------------0-0--0---0--------------------------------|
A|--2-2--2-----------------------------2-2--2------------2---0-0---0-0---0-0--3----5~---|
E|------------------------------3-3--3--------------------------------------------------|
B|--------------------------------------------------------------------------------------|


Verse 3/Outro:
G|--------------------------------------------------|
D|--------------------------------------------------|
A|--------------------------------------------------|
E|--------------------------------------------------|
B|--3--1--3--1--3--1--3--1--3--1--3--1--3--1--3--1--| (x2)

G|----------------------------------------------------------|
D|----------------------------------------------------------|
A|----------------------------------------------------------|
E|----------------------------------------------------------|
B|--4--4-4-4-1-2--4--4-4-4-1-2--4--4-4-4-1-2--4--4-4-4-1-2--|

G|--------------------------------------------------|
D|--------------------------------------------------|
A|--------------------------------------------------|
E|--------------------------------------------------|
B|--3--1--3--1--3--1--3--1--3--1--3--1--3--1--3--1--| (x2)

G|----------------------------------------------------------|
D|----------------------------------------------------------|
A|----------------------------------------------------------|
E|----------------------------------------------------------|
B|--4--4-4-4-1-2--4--4-4-4-1-2--4--4-4-4-1-2--4--4-4-4-1-2--|

G|------|
D|------|
A|------|
E|------|
B|--1~--|