311 - Let The Cards Fall Chords & Tabs

 

Let The Cards Fall Chords & Tabs

311 Chords & Tabs

Version: 1 Type: Bass Tab 0 ratings
1 star 2 stars 3 stars 4 stars 5 stars
comments

Let The Cards Fall Bass Tab

'Let the Cards Fall' - Bass Tab
Performed by 311
From the album "Enlarged to Show Detail" on Capricorn Records
Music by:  N. Hexum
Lyrics by:  N. Hexum
(c) 1996 Allegiance Music/Hydroponic Music BMI
--------------
Tabbed by: Daniel Alonzo (isoscele@hiline.net)
311 Guitar Archive - http://chromosome.colorado.edu/311archive/Home.html


G|----------------------| (Repeat as needed)
D|-0-0-0---2-0-0--2---2-|
A|-------2----------2---|
E|----------------------|


Bridge:
G|----------------------0-|
D|--------------------2---|
A|-1-1-1--0--1-1-1--3-----|
E|------------------------|

G|----------------------|
D|-0-0-0---2-0-0--2---2-|
A|-------2----------2---|
E|----------------------|


G|-------4--------------0----------------------|
D|---0-4---4-0------0--(5)--0------------------|
A|-2-------------2-------------2---0--0--0---3-|
E|-------------3-------------------------------|

G|---------------|
D|-0-0-0---2-0-0-|
A|-------2-------|
E|---------------|
[ Tab from: http://www.guitartabs.cc/tabs/0-9/311/let_the_cards_fall_btab.html ]
G|----------------------------|  (Repeat as needed)
D|-0-0--0-0-0--0-0----0-2---2-|
A|------------------------2---|
E|----------------------------|

Bridge:
G|--------------------------3-|
D|------------------------0---|
A|-1-1--1-1-1--1-1----1-1-----|
E|----------------------------|

G|--------------------------0-|
D|------------------------2---|
A|-1-1--1-1-1--1-1----1-1-----|
E|----------------------------|

G|----------------------------|  (Repeat as needed)
D|-0-0--0-0-0--0-0----0-2---2-|
A|------------------------2---|
E|----------------------------|

G|----------------------4----------------------------------------------|
D|--------0-0--0-4-4--4---4-0---------------0-0--0-5-0-2---------------|
A|-2-2--2----------------------------2-2--2--------------0-0--0-0--0-0-|
E|----------------------------3-3--3-----------------------------------|

G|---------|
D|-------0-|
A|-3-------|
E|---------|


Hard Part:
G|-------| (16 times)
D|-------|
A|--5-3--|
E|-------|

G|-----------------|  (4 times)
D|-----------------|
A|--6--6-6-6--3-4--|
E|-----------------|   Repeat...


Last note:

A|--3--|


== Last Updated:  June 18, 1997 ==

Comments