311 - Large In The Margin Chords & Tabs

 

Large In The Margin Chords & Tabs

311 Chords & Tabs

Version: 1 Type: Bass Tab 0 ratings
1 star 2 stars 3 stars 4 stars 5 stars
comments

Large In The Margin Bass Tab

   
'Large In The Margin'
Performed by 311
From the album "Soundsystem" on Capricorn Records
Music by:  C. Sexton
Lyrics by:  N. Hexum
(c) 1999 Hydroponic Music BMI
---------------
Tabbed by: Justin Reynolds (jxstylez@aol.com)
           Sean Barbarotta (MastaSean@aol.com)
The 311 Guitar Archive -- http://chromosome.colorado.edu/311archive/


Riff 1:
=======

G:-------------
D:-------------
A:-------------
E:-------------
B:-1/3-3-1-1-1-

Fill 1:
=======

G:---------------------------------------------------
D:---------------------------------------------------
A:---------------------------------------------------
E:---------------------------------------------------
B:-1-1-1--1-1---1-1-1--1-1---3-3-3--3-3---3-3-3--3-3-

Riff 2:
=======

G:------------
D:------------
A:------------
E:------------
B:-3-3-3-3--3-

Fill 2:
=======

G:---------
D:---------
A:---------
E:-------2-
B:-3-3-5---

Bridge:
=======
[ Tab from: http://www.guitartabs.cc/tabs/0-9/311/large_in_the_margin_btab.html ]
G:---------------------
D:---------------------
A:---------2-2-2-2-2-2-
E:-5-5-3-3-------------
B:---------------------

Last Note:
==========

G:---
D:---
A:---
E:---
B:-3-

[Version 2:}

G-----------------------
D-----------------------
A-----------------------
E-----------------------
B-1h33--3----1-0-1-------(1h33----1- play last C sometimes)
A:Riff 1

G--------------------
D--------------------
A--------------------

E-0h22--2------------
B------------1h33--3-
Riff  2


G--------------------
D--------------------
A--------------------
E--------------------
B-1h33--3------------
B:Riff 3

G--------------------
D--------------------
A--------2-X2X2------
E-44-33-3--------2---
B--------------------
C:Riff 4 1st time

G--------------------
D--------------------
A---------2-X2X2-----
E-44--22-2--------2--
B--------------------
Riff 4 2nd time

G--------------------
D--------------------
A---------2----------
E-44--33-3-----------
B------------0X0-----
Riff 4 Last time

go back to riff 3
D:Ending:
E--5----------
B------3------

Listen to song for rhythms and help.



Comments