311 - Jupiter Chords & Tabs

 

Jupiter Chords & Tabs

311 Chords & Tabs

Version: 2 Type: Tab 0 ratings
1 star 2 stars 3 stars 4 stars 5 stars
comments

Jupiter Tab

   
Artist: 311
Song: Jupiter
Album: Transistor
Tabbed by: mike

I didn't like the tab for this song thats already here, so i tabbed it out myself.



e|------------------|      e------------------|
B|------------------|      B------------------|
G|------------------|      G------------------|
D|------------------| x2   D------------------| x2
A|-0-02-23-32-2-3-2-|      A-0-02-24-42-2-4-2-|
E|------------------|      E------------------|

pre chorus (Played twice):
e|-------------------------------------------------|
B|-------------------------------------------------|
G|-------------------------------------------------|
D|------------0-3-2------------------0-3-2---------|
A|-0-3-0-3-5--------------0-3-0-3-5----------------|
E|------------------5-3-3------------------5-3-3---|


e|-------------------------------------------------|
B|-------------------------------------------------|
G|-------------------------------------------------|
D|--------------4-3--------------------4-3---------|
A|-0-4-0-4-6--6-----------0-4-0-4-6--6-------------|
E|------------------6-4-4------------------5-3-3---|

Chorus
e|-------------------------------------------|
B|-------------------------------------------|
G|-------------------------------------------|
D|-------------------------------------------|
A|-5--3-2--3-2--3-2--5-33-2-33-2-2-3-3-22-2--|
E|-5--3-2--3-2--3-2--5-33-2-33-2-2-3-3-22-2--|


e|---------------------------------|
B|---------------------------------|
G|---------------------------------|
D|---------------------------------|
A|-5-3-2--3-2-3-2--5-33-22-2-2/3-3-|
E|-5-3-2--3-2-3-2--5-33-22-2-2/3-3-|


e|------------------|      e------------------|
B|------------------|      B------------------|
G|------------------|      G------------------|
D|------------------| x2   D------------------| x2
A|-0-02-23-32-2-3-2-|      A-0-02-24-42-2-4-2-|
E|------------------|      E------------------|

[ Tab from: http://www.guitartabs.cc/tabs/0-9/311/jupiter_tab_ver_2.html ]
pre chorus (Played twice):
e|-------------------------------------------------|
B|-------------------------------------------------|
G|-------------------------------------------------|
D|------------0-3-2------------------0-3-2---------|
A|-0-3-0-3-5--------------0-3-0-3-5----------------|
E|------------------5-3-3------------------5-3-3---|


e|-------------------------------------------------|
B|-------------------------------------------------|
G|-------------------------------------------------|
D|--------------4-3--------------------4-3---------|
A|-0-4-0-4-6--6-----------0-4-0-4-6--6-------------|
E|------------------6-4-4------------------5-3-3---|


e|-------------|
B|-------------|
G|-------------|
D|-------------|
A|-6---6---6-6-|
E|-5---5---5-5-|


Chorus
e|-------------------------------------------|
B|-------------------------------------------|
G|-------------------------------------------|
D|-------------------------------------------|
A|-5--3-2--3-2--3-2--5-33-2-33-2-2-3-3-22-2--|
E|-5--3-2--3-2--3-2--5-33-2-33-2-2-3-3-22-2--|


e|---------------------------------|
B|---------------------------------|
G|---------------------------------|
D|---------------------------------|
A|-5-3-2--3-2-3-2--5-33-22-2-2/3-3-|
E|-5-3-2--3-2-3-2--5-33-22-2-2/3-3-|


e|----------------------------------------------------|
B|----------------------------------------------------|
G|----------------------------------------------------|
D|-7-7--7-7-7-7--7-7--7-7-7-7--7-7-7-7-7-7--7-7--7-5--|
A|-5-5--5-5-5-5--5-5--5-5-5-5--5-5-5-5-5-5--5-5--5-3--|
E|----------------------------------------------------|


e|--------------------------------------------------------|
B|--------------------------------------------------------|
G|--------------------------------------------------------|
D|--------------------------------------------------------|
A|-7-7--7-7-7-7--7-7--7-7-7-7--7-7--7-7-7-7--7-7--7-7-7-7-|
E|-5-5--5-5-5-5--5-5--5-5-5-5--5-5--5-5-5-5--5-5--5-5-5-5-|
Comments