311 - Jupiter Chords & Tabs

 

Jupiter Chords & Tabs

311 Chords & Tabs

Version: 2 Type: Bass Tab 0 ratings
1 star 2 stars 3 stars 4 stars 5 stars
comments

Jupiter Bass Tab

'Jupiter' -- Bass Tab
Performed by 311
From the album "Transistor" on Capricorn/Mercury Records
Music by:  C. Sexton
Lyrics by:  N. Hexum and D. Martinez
(c) 1997 Hydroponic Music BMI
---------------
Tabbed by: Jeremy Daw (summit@rideau.net)
The 311 Guitar Archive -- http://chromosome.colorado.edu/311archive/Home.html


Riff 1a:
========

G:--------------------------------------------
D:--------------------------------------------
A:-0-0-2-2-3-3-2-2--3-2--0-0-2-2-3-3-2-2--3-2-
E:--------------------------------------------
B:--------------------------------------------


Riff 1b:
========

G:--------------------------------------------
D:--------------------------------------------
A:-0-0-2-2-4-4-2-2--4-2--0-0-2-2-4-4-2-2--4-2-
E:--------------------------------------------
B:--------------------------------------------


Riff 2a:
========

G:--------------------------------------
D:---------3-2----------------3-2-------
A:-3-3-5-3------------3-3-5-3-----------
E:-------------5-3-3--------------5-3-3-
B:--------------------------------------


Riff 2b:
========
[ Tab from: http://www.guitartabs.cc/tabs/0-9/311/jupiter_btab_ver_2.html ]
G:--------------------------------------
D:---------4-3----------------4-3-------
A:-4-4-6-4------------4-4-6-4-----------
E:-------------6-4-4--------------5-3-3-
B:--------------------------------------


Riff 3a:
========

G:---------------------------------------------------
D:---------------------------------------------------
A:---------------------------------------------------
E:---------------------------------------------------
B:-3-----1--0--1--0--1--0---3-----1--0--1-0-1-0-1-0--


Riff 3b:
========

G:---------------------------------------------
D:---------------------------------------------
A:---------------------------------------------
E:---------------------------------------------
B:-3-----1--0--1--0--1--0---3-----1---0---0--1-


Fill 1:
=======

G:-------
D:-------
A:-------
E:-------
B:-4---4-


End Riff:
=========

G:-------------------------------------------------
D:-------------------------------------------------
A:-------------------------------------------------
E:-------------------------------------------------
B:-3-3--3-3--3--3-3--3-3--3--3-3--3-3--3--3-3--3-1-


== Last Updated:  September 18, 1997 ==
Comments