311 - Juan Bond Chords & Tabs

 

Juan Bond Chords & Tabs

311 Chords & Tabs

Version: 1 Type: Bass Tab 0 ratings
1 star 2 stars 3 stars 4 stars 5 stars
comments

Juan Bond Bass Tab

'Juan Bond' -- Bass Tab
Performed by 311
An outtake from the "311" album
Appeared on Spin (Magazine) College Radio in Late December, 1995
Music by:  N. Hexum 
Lyrics by:  D. Martinez & N. Hexum
(c) 1995 Allegiance Music/Hydroponic Music BMI
---------------
Tabbed by: Justin Reynolds (ChAoSHeX@juno.com)
The 311 Guitar Archive -- http://chromosome.colorado.edu/311archive/Home.html


Riff 1:
=======

G:-------------------
D:-------------------
A:---5-6-----5-6-6---
E:-4-----4-4-------4-
 
This riff is easiest played like this, in my opinion, however you can play
it like this:

G:-------------------
D:--0-1-------0-1-1--
A:-------------------
E:-4-----4-4-------4-


Riff 2:
=======
[ Tab from: http://www.guitartabs.cc/tabs/0-9/311/juan_bond_btab.html ]
G:--------------------------------------------------------------------
D:-----0-----------------------------------0--------------------------
A:---2---2---2-3-2-----0-3-0---0-1-0-----2---2---2-3-2-----0-3-0------
E:-3-------3-------2-1-------1-------2-3-------3-------2-1-------1--2-


Chorus:
=======

G:---------------------------------0-0-1-1-
D:---------------------------4-4-----------
A:-4-4--2--4-4--2--4-4--2------------------
E:-----------------------------------------


Bridge:
=======

G:-------------------------------------------------
D:-------------------------------------------------
A:-------------------------------------------------
E:-1-1--4-4--1-1--4-4--1--2-2--4-4--2-2--4---2---4-


== Last Updated:  November 3, 1997 ==
Comments