311 - Intro Chords & Tabs

 

Intro Chords & Tabs

311 Chords & Tabs

Version: 2 Type: Bass Tab

Intro Bass Tab

   
Artist: 311
Song: Intro
Album: Transistor (1997)
Bassist: P-Nut
Tuning: B-E-A-D-G
Notes: 


Main Part:
G|------------------------------------|
D|------------------------------------|
A|------------------------------------|
E|----0-1------0-1------0-1------0-1--|
B|--3--------3--------3--------3------|

G|------------------------------------------------------------|
D|------------------------------------------------------------|
A|------------------------------------------------------------|
E|----0-1--1--1------0-1--1--1------0-1--1--1------0-1--1--1--|
B|--3--------------3--------------3--------------3------------|

G|--------------------------|
D|--------------------------|
A|--------------------------|
E|--5-3--3------------------|
B|---------x-x-3-x-x-3-x-x--| (x4)

G|------------------------------------|
D|------------------------------------|
A|------------------------------------|
E|----0-1------0-1------0-1------0-1--|
B|--3--------3--------3--------3------|

G|------------------------------------------------------------|
D|------------------------------------------------------------|
A|------------------------------------------------------------|
E|----0-1--1--1------0-1--1--1------0-1--1--1------0-1--1--1--|
B|--3--------------3--------------3--------------3------------|

G|--------------------------|
D|--------------------------|
A|--------------------------|
E|--5-3--3------------------|
B|---------x-x-3-x-x-3-x-x--| (x4)


Guitar Solo:
G|------------------------------------------------------------------------------|
D|------------------------------------------------------------------------------|
A|--2--2-2-2-2---------------2--2-2-2-2-----------------2--2-2-2-2--------------|
E|-------------0--0--0---0--------------0-0-0-0-0-0-0-0------------0--0--0---0--|
B|------------------------------------------------------------------------------|
[ Tab from: http://www.guitartabs.cc/tabs/0-9/311/intro_btab_ver_2.html ]
G|--------------------------------------------------------------------------------|
D|--------------------------------------------------------------------------------|
A|--2--2-2-2-2--------------------------------------------------------------------|
E|-------------0-0-0-0-0-0-0-0-0-0-0-0-0-0--0--0--0--0--0---0---0---0----0----0~--|
B|--------------------------------------------------------------------------------|


   DROP-D TUNING


Main Part:
G|------------------------------------|
D|------------------------------------|
A|------------------------------------|
D|--0-2-3----0-2-3----0-2-3----0-2-3--|

G|------------------------------------------------------------|
D|------------------------------------------------------------|
A|------------------------------------------------------------|
D|--0-2-3--3--3----0-2-3--3--3----0-2-3--3--3----0-2-3--3--3--|

G|--------------------------|
D|--------------------------|
A|--------------------------|
E|--7-5--5-x-x-0-x-x-0-x-x--| (x4)

G|------------------------------------|
D|------------------------------------|
A|------------------------------------|
D|--0-2-3----0-2-3----0-2-3----0-2-3--|

G|------------------------------------------------------------|
D|------------------------------------------------------------|
A|------------------------------------------------------------|
D|--0-2-3--3--3----0-2-3--3--3----0-2-3--3--3----0-2-3--3--3--|

G|--------------------------|
D|--------------------------|
A|--------------------------|
E|--7-5--5-x-x-0-x-x-0-x-x--| (x4)


Guitar Solo:
G|------------------------------------------------------------------------------|
D|------------------------------------------------------------------------------|
A|--2--2-2-2-2---------------2--2-2-2-2-----------------2--2-2-2-2--------------|
E|-------------2--2--2---2--------------2-2-2-2-2-2-2-2------------2--2--2---2--|

G|--------------------------------------------------------------------------------|
D|--------------------------------------------------------------------------------|
A|--2--2-2-2-2--------------------------------------------------------------------|
E|-------------2-2-2-2-2-2-2-2-2-2-2-2-2-2--2--2--2--2--2---2---2---2----2----2~--|