311 - Ill Be Here Awhile Chords & Tabs

 

Ill Be Here Awhile Chords & Tabs

311 Chords & Tabs

Version: 3 Type: Tab 0 ratings
1 star 2 stars 3 stars 4 stars 5 stars
comments

Ill Be Here Awhile Tab

   
Intro:
G.1
E|-0-00-0-0-2-02-2/3-3-2-0--------------|
B|-1-11-1-1-1-11-----------3-1-0-----1--|
G|-2-22-2-2-2-22-----------------234--2-|
D|--------------------------------------|
A|--------------------------------------|
E|--------------------------------------|

E|-00-0-0-2-02-2/3--2--0--------------|
B|-11-1-1-1-11------------3---------1-|
G|-22-2-2-2-22----4--4--4----45-234---|
D|-----------------5--5--5--5---------|
A|------------------------------------|
E|------------------------------------|

Chorus 1:
G.2
E|-7-7-7-7-7-7-7-7-3-3-3-3-3-3-3-3-|
B|-8-8-8-8-8-8-8-8-3-3-3-3-3-3-3-3-|
G|-9-9-9-9-9-9-9-9-4-4-4-4-4-4-4-4-|
D|---------------------------------|
A|---------------------------------|
E|---------------------------------|

Verse:
G.2
A1)
E|-2-2-2-2-2-2-2-2-3-3-3-3-3-3-3-3-|
B|-3-3-3-3-3-3-3-3-3-3-3-3-3-3-3-3-|
G|-4-4-4-4-4-4-4-4-4-4-4-4-4-4-4-4-|
D|---------------------------------|
A|---------------------------------|
E|---------------------------------|
[ Tab from: http://www.guitartabs.cc/tabs/0-9/311/ill_be_here_awhile_tab_ver_3.html ]
G.2
B1)
E|-3-3-|
B|-5-3-|
G|-4-4-|
D|-----|
A|-----|
E|-----|

G.2
B2)   !!!THIS PART IS NOT CORRECTED YET>>>I MUST STRESS THIS MANY TIMES!!!
E|---0-353-0-2-----7-||---3-3----3-3-|
B|--4-----3------5-5-||--5--5---3--3-|
G|-3------------4--4-||-4---4--4---4-|
D|-------------5---5-||--------------|
A|-------------------||--------------|
E|-------------------||--------------|

Chorus 2:
G.1
E|-00-0-00-0-0-2-02-2/3-3-2-0-------------|
B|-11-1-11-1-1-1-11-----------3-1-0----1--|
G|-22-2-22-2-2-2-22-----------------234---|
D|----------------------------------------|
A|----------------------------------------|
E|----------------------------------------|

G.2
E|-7-7-7-7-7-7-7-7-3-3-3-3-3-3-3-3-|
B|-8-8-8-8-8-8-8-8-3-3-3-3-3-3-3-3-|
G|-9-9-9-9-9-9-9-9-4-4-4-4-4-4-4-4-|
D|---------------------------------|
A|---------------------------------|
E|---------------------------------|


ORDER:
Intro
Chorus 1
Verse A1
Verse B1
Chorus 1
Verse A1
Verse B1
Chorus 2
Verse B2 <<<
							
													
Comments