311 - Ill Be Here Awhile Chords & Tabs

 

Ill Be Here Awhile Chords & Tabs

311 Chords & Tabs

Version: 2 Type: Tab 1 rating
1 star 2 stars 3 stars 4 stars 5 stars
comments

Ill Be Here Awhile Tab

   
Song is in standard tuning
Finger picked with intro then stumming for rest of song
1. intro
2. chorus
3. verse
4. chorus
5. verse 2
6. chorus
7. verse 3
8. chorus
9. chorus/end of song

(h) hammer on
(p) pull off
(d) or u is the direction of strumming
measures
  
  INTRO  
e---0---0-0---0--0--2-0-2---3---3---2--0--x-x-x---x-x--x-x
b---1---1-1---1--1--1-1-1---0---0---x--x--3-1-0---x-x--0h1
g---2---2-2---2--2--2-2-2---0---0---x--x--x-x-x---0h2--x-x
d---x---x-x---x--x--x-x-x---x---x---x--x--x-x-x---x-x--x-x
a---x---x-x---x--x--x-x-x---x---x---x--x--x-x-x---x-x--x-x
E---x---x-x---x--x--x-x-x---x---x---x--x--x-x-x---x-x--x-x

e---0---0-0---0--0--2-0-2---3-x-x--2-x-x--0-x-x--x--x-x--x-x--x-x
b---1---1-1---1--1--1-1-1---x-0-x--x-0-x--x-0-x--x--x-x--x-x--0h1
g---2---2-2---2--2--2-2-2---x-x-0--x-x-0--x-x-0--3--1-0--0h2--x-x
d---x---x-x---x--x--x-x-x---x-x-x--x-x-x--x-x-x--x--x-x--x-x--x-x
a---x---x-x---x--x--x-x-x---x-x-x--x-x-x--x-x-x--x--x-x--x-x--x-x
E---x---x-x---x--x--x-x-x---x-x-x--x-x-x--x-x-x--x--x-x--x-x--x-x

--------------------------------------------------------------------------------------------------
  CHORUS
    Am                         G 
    d   d  u d  u d u  u d u   d   d  u d  u d  u d u
e---0---0--0-0--0-0-0--0-0-0---3---3--3-3--3-3--3-3-3
b---1---1--1-1--1-1-1--1-1-1---0---0--0-0--0-0--0-0-0
g---2---2--2-2--2-2-2--2-2-2---0---0--0-0--0-0--0-0-0
d---2---2--2-2--2-2-2--2-2-2---0---0--0-0--0-0--0-0-0
a---0---0--0-0--0-0-0--0-0-0---1---1--1-1--1-1--1-1-1
E---0---0--0-0--0-0-0--0-0-0---2---2--2-2--2-2--2-2-2

    Am                         G
    d   d  u d  u d u  u d u   d   d  u d  u d  u d u
e---0---0--0-0--0-0-0--0-0-0---3---3--3-3--3-3--3-3-3
b---1---1--1-1--1-1-1--1-1-1---0---0--0-0--0-0--0-0-0
g---2---2--2-2--2-2-2--2-2-2---0---0--0-0--0-0--0-0-0
d---2---2--2-2--2-2-2--2-2-2---0---0--0-0--0-0--0-0-0
a---0---0--0-0--0-0-0--0-0-0---1---1--1-1--1-1--1-1-1
E---0---0--0-0--0-0-0--0-0-0---2---2--2-2--2-2--2-2-2

--------------------------------------------------------------------------------------------------
   VERSE 1

    d                          Em
    d   d  u d  u d u  u d u   d   d  u d  u d  u d u
e---2---2--2-2--2-2-2--2-2-0---0---0--0-0--0--0-0-0-0
b---3---3--3-3--3-3-3--3-3-3---0---0--0-0--0-0--0-0-0
g---2---2--2-2--2-2-2--2-2-2---0---0--0-0--0-0--0-0-0
d---0---0--0-0--0-0-0--0-0-0---2---2--2-2--2-2--2-2-2
a---0---0--0-0--0-0-0--0-0-0---2---2--2-2--2-2--2-2-2
E---0---0--0-0--0-0-0--0-0-0---0---0--0-0--0-0--0-0-0

    d                          Em
    d   d  u d  u d u  u d u   d   d  u d  u d  u d u
e---2---2--2-2--2-2-2--2-2-0---0---0--0-0--0--0-0-0-0
b---3---3--3-3--3-3-3--3-3-3---0---0--0-0--0-0--0-0-0
g---2---2--2-2--2-2-2--2-2-2---0---0--0-0--0-0--0-0-0
d---0---0--0-0--0-0-0--0-0-0---2---2--2-2--2-2--2-2-2
a---0---0--0-0--0-0-0--0-0-0---2---2--2-2--2-2--2-2-2
E---0---0--0-0--0-0-0--0-0-0---0---0--0-0--0-0--0-0-0


    C                          G
    d   d  u d  u d u  u d u   d   d  u d  u d  u d u
e---0---0--0-0--0-0-0--0-0-0---3---3--3-3--3-3--3-3-3
b---1---1--1-1--1-1-1--1-1-1---0---0--0-0--0-0--0-0-0
g---0---0--0-0--0-0-0--0-0-0---0---0--0-0--0-0--0-0-0
d---2---2--2-2--2-2-2--2-2-2---0---0--0-0--0-0--0-0-0
a---3---3--3-3--3-3-3--3-3-3---2---2--2-2--2-2--2-2-2
E---0---0--0-0--0-0-0--0-0-0---3---3--3-3--3-3--3-3-3

    C                          G
    d   d  u d  u d u  u d u   d   d  u d  u d  u d u
e---0---0--0-0--0-0-0--0-0-0---3---3--3-3--3-3--3-3-3
b---1---1--1-1--1-1-1--1-1-1---0---0--0-0--0-0--0-0-0
g---0---0--0-0--0-0-0--0-0-0---0---0--0-0--0-0--0-0-0
d---2---2--2-2--2-2-2--2-2-2---0---0--0-0--0-0--0-0-0
a---3---3--3-3--3-3-3--3-3-3---2---2--2-2--2-2--2-2-2
E---0---0--0-0--0-0-0--0-0-0---3---3--3-3--3-3--3-3-3

---------------------------------------------------------------------------------------------------

 CHORUS
    Am                         G 
    d   d  u d  u d u  u d u   d   d  u d  u d  u d u
e---0---0--0-0--0-0-0--0-0-0---3---3--3-3--3-3--3-3-3
b---1---1--1-1--1-1-1--1-1-1---0---0--0-0--0-0--0-0-0
g---2---2--2-2--2-2-2--2-2-2---0---0--0-0--0-0--0-0-0
d---2---2--2-2--2-2-2--2-2-2---0---0--0-0--0-0--0-0-0
a---0---0--0-0--0-0-0--0-0-0---1---1--1-1--1-1--1-1-1
E---0---0--0-0--0-0-0--0-0-0---2---2--2-2--2-2--2-2-2

    Am                         G
    d   d  u d  u d u  u d u   d   d  u d  u d  u d u
e---0---0--0-0--0-0-0--0-0-0---3---3--3-3--3-3--3-3-3
b---1---1--1-1--1-1-1--1-1-1---0---0--0-0--0-0--0-0-0
g---2---2--2-2--2-2-2--2-2-2---0---0--0-0--0-0--0-0-0
d---2---2--2-2--2-2-2--2-2-2---0---0--0-0--0-0--0-0-0
a---0---0--0-0--0-0-0--0-0-0---1---1--1-1--1-1--1-1-1
E---0---0--0-0--0-0-0--0-0-0---2---2--2-2--2-2--2-2-2

--------------------------------------------------------------------------------------------------
   VERSE 2

    d                          Em
    d   d  u d  u d u  u d u   d   d  u d  u d  u d u
e---2---2--2-2--2-2-2--2-2-0---0---0--0-0--0--0-0-0-0
b---3---3--3-3--3-3-3--3-3-3---0---0--0-0--0-0--0-0-0
g---2---2--2-2--2-2-2--2-2-2---0---0--0-0--0-0--0-0-0
d---0---0--0-0--0-0-0--0-0-0---2---2--2-2--2-2--2-2-2
a---0---0--0-0--0-0-0--0-0-0---2---2--2-2--2-2--2-2-2
E---0---0--0-0--0-0-0--0-0-0---0---0--0-0--0-0--0-0-0

    d                          Em
    d   d  u d  u d u  u d u   d   d  u d  u d  u d u
e---2---2--2-2--2-2-2--2-2-0---0---0--0-0--0--0-0-0-0
b---3---3--3-3--3-3-3--3-3-3---0---0--0-0--0-0--0-0-0
g---2---2--2-2--2-2-2--2-2-2---0---0--0-0--0-0--0-0-0
d---0---0--0-0--0-0-0--0-0-0---2---2--2-2--2-2--2-2-2
a---0---0--0-0--0-0-0--0-0-0---2---2--2-2--2-2--2-2-2
E---0---0--0-0--0-0-0--0-0-0---0---0--0-0--0-0--0-0-0

[ Tab from: http://www.guitartabs.cc/tabs/0-9/311/ill_be_here_awhile_tab_ver_2.html ]
    C                          G
    d   d  u d  u d u  u d u   d   d  u d  u d  u d u
e---0---0--0-0--0-0-0--0-0-0---3---3--3-3--3-3--3-3-3
b---1---1--1-1--1-1-1--1-1-1---0---0--0-0--0-0--0-0-0
g---0---0--0-0--0-0-0--0-0-0---0---0--0-0--0-0--0-0-0
d---2---2--2-2--2-2-2--2-2-2---0---0--0-0--0-0--0-0-0
a---3---3--3-3--3-3-3--3-3-3---2---2--2-2--2-2--2-2-2
E---0---0--0-0--0-0-0--0-0-0---3---3--3-3--3-3--3-3-3

    C                          G
    d   d  u d  u d u  u d u   d   d  u d  u d  u d u
e---0---0--0-0--0-0-0--0-0-0---3---3--3-3--3-3--3-3-3
b---1---1--1-1--1-1-1--1-1-1---0---0--0-0--0-0--0-0-0
g---0---0--0-0--0-0-0--0-0-0---0---0--0-0--0-0--0-0-0
d---2---2--2-2--2-2-2--2-2-2---0---0--0-0--0-0--0-0-0
a---3---3--3-3--3-3-3--3-3-3---2---2--2-2--2-2--2-2-2
E---0---0--0-0--0-0-0--0-0-0---3---3--3-3--3-3--3-3-3

---------------------------------------------------------------------------------------------------

 CHORUS
    Am                         G 
    d   d  u d  u d u  u d u   d   d  u d  u d  u d u
e---0---0--0-0--0-0-0--0-0-0---3---3--3-3--3-3--3-3-3
b---1---1--1-1--1-1-1--1-1-1---0---0--0-0--0-0--0-0-0
g---2---2--2-2--2-2-2--2-2-2---0---0--0-0--0-0--0-0-0
d---2---2--2-2--2-2-2--2-2-2---0---0--0-0--0-0--0-0-0
a---0---0--0-0--0-0-0--0-0-0---1---1--1-1--1-1--1-1-1
E---0---0--0-0--0-0-0--0-0-0---2---2--2-2--2-2--2-2-2

    Am                         G
    d   d  u d  u d u  u d u   d   d  u d  u d  u d u
e---0---0--0-0--0-0-0--0-0-0---3---3--3-3--3-3--3-3-3
b---1---1--1-1--1-1-1--1-1-1---0---0--0-0--0-0--0-0-0
g---2---2--2-2--2-2-2--2-2-2---0---0--0-0--0-0--0-0-0
d---2---2--2-2--2-2-2--2-2-2---0---0--0-0--0-0--0-0-0
a---0---0--0-0--0-0-0--0-0-0---1---1--1-1--1-1--1-1-1
E---0---0--0-0--0-0-0--0-0-0---2---2--2-2--2-2--2-2-2

--------------------------------------------------------------------------------------------------
   VERSE 3

    d                          Em
    d   d  u d  u d u  u d u   d   d  u d  u d  u d u
e---2---2--2-2--2-2-2--2-2-0---0---0--0-0--0--0-0-0-0
b---3---3--3-3--3-3-3--3-3-3---0---0--0-0--0-0--0-0-0
g---2---2--2-2--2-2-2--2-2-2---0---0--0-0--0-0--0-0-0
d---0---0--0-0--0-0-0--0-0-0---2---2--2-2--2-2--2-2-2
a---0---0--0-0--0-0-0--0-0-0---2---2--2-2--2-2--2-2-2
E---0---0--0-0--0-0-0--0-0-0---0---0--0-0--0-0--0-0-0

    d                          Em
    d   d  u d  u d u  u d u   d   d  u d  u d  u d u
e---2---2--2-2--2-2-2--2-2-0---0---0--0-0--0--0-0-0-0
b---3---3--3-3--3-3-3--3-3-3---0---0--0-0--0-0--0-0-0
g---2---2--2-2--2-2-2--2-2-2---0---0--0-0--0-0--0-0-0
d---0---0--0-0--0-0-0--0-0-0---2---2--2-2--2-2--2-2-2
a---0---0--0-0--0-0-0--0-0-0---2---2--2-2--2-2--2-2-2
E---0---0--0-0--0-0-0--0-0-0---0---0--0-0--0-0--0-0-0


    C                          G
    d   d  u d  u d u  u d u   d   d  u d  u d  u d u
e---0---0--0-0--0-0-0--0-0-0---3---3--3-3--3-3--3-3-3
b---1---1--1-1--1-1-1--1-1-1---0---0--0-0--0-0--0-0-0
g---0---0--0-0--0-0-0--0-0-0---0---0--0-0--0-0--0-0-0
d---2---2--2-2--2-2-2--2-2-2---0---0--0-0--0-0--0-0-0
a---3---3--3-3--3-3-3--3-3-3---2---2--2-2--2-2--2-2-2
E---0---0--0-0--0-0-0--0-0-0---3---3--3-3--3-3--3-3-3

    C                          G
    d   d  u d  u d u  u d u   d   d  u d  u d  u d u
e---0---0--0-0--0-0-0--0-0-0---3---3--3-3--3-3--3-3-3
b---1---1--1-1--1-1-1--1-1-1---0---0--0-0--0-0--0-0-0
g---0---0--0-0--0-0-0--0-0-0---0---0--0-0--0-0--0-0-0
d---2---2--2-2--2-2-2--2-2-2---0---0--0-0--0-0--0-0-0
a---3---3--3-3--3-3-3--3-3-3---2---2--2-2--2-2--2-2-2
E---0---0--0-0--0-0-0--0-0-0---3---3--3-3--3-3--3-3-3

---------------------------------------------------------------------------------------------------

 CHORUS
    Am                         G 
    d   d  u d  u d u  u d u   d   d  u d  u d  u d u
e---0---0--0-0--0-0-0--0-0-0---3---3--3-3--3-3--3-3-3
b---1---1--1-1--1-1-1--1-1-1---0---0--0-0--0-0--0-0-0
g---2---2--2-2--2-2-2--2-2-2---0---0--0-0--0-0--0-0-0
d---2---2--2-2--2-2-2--2-2-2---0---0--0-0--0-0--0-0-0
a---0---0--0-0--0-0-0--0-0-0---1---1--1-1--1-1--1-1-1
E---0---0--0-0--0-0-0--0-0-0---2---2--2-2--2-2--2-2-2

    Am                         G
    d   d  u d  u d u  u d u   d   d  u d  u d  u d u
e---0---0--0-0--0-0-0--0-0-0---3---3--3-3--3-3--3-3-3
b---1---1--1-1--1-1-1--1-1-1---0---0--0-0--0-0--0-0-0
g---2---2--2-2--2-2-2--2-2-2---0---0--0-0--0-0--0-0-0
d---2---2--2-2--2-2-2--2-2-2---0---0--0-0--0-0--0-0-0
a---0---0--0-0--0-0-0--0-0-0---1---1--1-1--1-1--1-1-1
E---0---0--0-0--0-0-0--0-0-0---2---2--2-2--2-2--2-2-2

--------------------------------------------------------------------------------------------------

 CHORUS
    Am                         G 
    d   d  u d  u d u  u d u   d   d  u d  u d  u d u
e---0---0--0-0--0-0-0--0-0-0---3---3--3-3--3-3--3-3-3
b---1---1--1-1--1-1-1--1-1-1---0---0--0-0--0-0--0-0-0
g---2---2--2-2--2-2-2--2-2-2---0---0--0-0--0-0--0-0-0
d---2---2--2-2--2-2-2--2-2-2---0---0--0-0--0-0--0-0-0
a---0---0--0-0--0-0-0--0-0-0---1---1--1-1--1-1--1-1-1
E---0---0--0-0--0-0-0--0-0-0---2---2--2-2--2-2--2-2-2

    Am                         G
    d   d  u d  u d u  u d u   d   d  u d  u d  u d u
e---0---0--0-0--0-0-0--0-0-0---3---3--3-3--3-3--3-3-3
b---1---1--1-1--1-1-1--1-1-1---0---0--0-0--0-0--0-0-0
g---2---2--2-2--2-2-2--2-2-2---0---0--0-0--0-0--0-0-0
d---2---2--2-2--2-2-2--2-2-2---0---0--0-0--0-0--0-0-0
a---0---0--0-0--0-0-0--0-0-0---1---1--1-1--1-1--1-1-1
E---0---0--0-0--0-0-0--0-0-0---2---2--2-2--2-2--2-2-2

--------------------------------------------------------------------------------------------------
Comments