311 - Ill Be Here Awhile Chords & Tabs

 

Ill Be Here Awhile Chords & Tabs

311 Chords & Tabs

Version: 1 Type: Tab 0 ratings
1 star 2 stars 3 stars 4 stars 5 stars
comments

Ill Be Here Awhile Tab

#----------------------------------PLEASE NOTE--------------------------------#
#This file is the author's own work and represents their interpretation of the#
#song. You may only use this file for private study, scholarship, or research.#
#-----------------------------------------------------------------------------#
#-----------------------------------------------------------------------------#

Author/Artist: 311
Title: I'll be Here Awhile
Album: From Chaos
Transcribed by: Zach Thompson
Email: smart_aas@yahoo.com

This song is meant to be finger picked. Pluck each of the strings in the chords. 
I am a huge piece of crap, goodbye.
[ Tab from: http://www.guitartabs.cc/tabs/0-9/311/ill_be_here_awhile_tab.html ]
-|-0--0-0--0--0--2--0-2--3--3--2-0------------------0-0--0--0--2--0-2---------
-|-1--1-1--1--1--1--1-1--0--0------3-1-0-----0-1----1-1--1--1--1--1-1---------
-|-2--2-2--2--2--2--2-2--0--0------------0h2-----2--2-2--2--2--2--2-2---------
-|----------------------------------------------------------------------------
-|----------------------------------------------------------------------------
-|----------------------------------------------------------------------------
  Intro                                                                       

--3-----2-----0--------------|------------------------------------------------
----0-----0-----0---3-1---0h1|------------------------------------------------
------0-----0-----0-----2----|------------------------------------------------
-----------------------------|------------------------------------------------
-----------------------------|------------------------------------------------
-----------------------------|------------------------------------------------


-|-0--0-0--0--0--2--0-2--3--3--2-0------------------|
-|-1--1-1--1--1--1--1-1--0--0------3-1-0-----0-1----|
-|-2--2-2--2--2--2--2-2--0--0------------0h2-----2--|
-|--------------------------------------------------|
-|--------------------------------------------------|
-|--------------------------------------------------|                                                                       

I'll be here awhile... 
Comments