311 - Ill Be Here Awhile Chords & Tabs

 

Ill Be Here Awhile Chords & Tabs

311 Chords & Tabs

Version: 1 Type: Bass Tab 0 ratings
1 star 2 stars 3 stars 4 stars 5 stars
comments

Ill Be Here Awhile Bass Tab

Song:I'll Be Here Awhile
Band:311
Tabber:T4-TURBO

Riff 1
G:-----------------------------------------------------
D:-----------------------------------------------------
A:-0-0--0-2-2--2-3-3--3--3-2-------3--5--3--2--0-0-2-3-
E:----------------------------3-3----------------------
B:-----------------------------------------------------

Riff 2:
G:---------------------------------------------
D:--------2---------2--------------------------
A:-0-0------0-0------------3--5--3--2--0-0-2-3-
E:--------------------3-3----------------------
B:---------------------------------------------

Riff 3:
G:--------4-7-6-4-x-7-6------------------------------
D:------4---------------//4--------------------------
A:-2-2-----------------------------------------------
E:----------------------------0-0--2-3-2--0-0--2-3-2-
B:---------------------------------------------------
[ Tab from: http://www.guitartabs.cc/tabs/0-9/311/ill_be_here_awhile_btab.html ]
Riff 4:
G:---------4-----------------4------
D:----2--5---5---2------------------
A:-3--------------------2--5---5--2-
E:-------------------3--------------
B:----------------------------------

G:---------4-----------------4--2--4-
D:----2--5---5---2-------------------
A:-3--------------------2--5---------
E:-------------------3---------------
B:-----------------------------------

Riff 5:
G:---------------------------------------------------
D:---------------------------------------------------
A:---------------------------------------------------
E:---7--7--7--7--7--7--7--7---0-0--2-3-2--0-0--2-3-2-
B:-0--0--0--0--0--0--0--0----------------------------

G:------------------------------------------------------
D:------------------------------------------------------
A:-----------------------------------------3-3----3-3---
E:----------------------------0-0--2-3-2----------------
B:-0-70-70-70-70-70-70-70-7---------------------1-----1-

Riff 6:
G:-------------------2-4-
D:-----------------------
A:-----------------------
E:-----3---------3-------
B:-1-------1-------------
Comments