311 - Ill Be Here A While Chords & Tabs

 

Ill Be Here A While Chords & Tabs

311 Chords & Tabs

Version: 1 Type: Tab 1 rating
1 star 2 stars 3 stars 4 stars 5 stars
comments

Ill Be Here A While Tab

   
This is Cyanmonkey’s work.  Please do not take credit for his work.  He is lonely and needs to know he has contributed to the world.  E-mail him here: 

Cyanmonkey@yahoo.com

311 – I’ll Be Here A While

Acoustic Intro:
Eb 0--0-0---0-0-2-0-2-3-3-2-0----------------------0---0-0---0-0-2-0-2-3----2----0---------
Bb ---------------1-1-1-----------3-1-0---------1(let ring)------1-1-1---0----0----0---3---
Gb 2--2-2---2-2--------4-4-4-----------0h2h4-------2—2-2---2-2-------------0----0----0—4-
Db --------------------------------------------------------------------------------------5
Ab -------------------------------------------------------------------------------------------------
Eb -------------------------------------------------------------------------------------------------
[ Tab from: http://www.guitartabs.cc/tabs/0-9/311/ill_be_here_a_while_tab.html ]
Eb --------------------------------------------------------------------------------------------------
Bb 1—0--------------------------------------------------------------------------------------------
Gb –0—0------------------------------------------------------------------------------------------
Db -------------------------------------------------------------------------------------------------
Ab -------------------------------------------------------------------------------------------------
Eb --------------------------------------------------------------------------------------------------

Chorus:
In the chorus the intro is played over it in the background.

I’ll beeeeeeeeeeeeee here a while…
Eb 0---0-0-3-3-3-3-3-3-3-3-3-3-3-3
Bb 1---1-1-5-5-5-5-3-3-3-3-3-3-3-3
Gb 2---2-2-5-5-5-5-4-4-4-4-4-4-4-4
Db --------------------------------------
Ab --------------------------------------
Eb --------------------------------------

Verse:

The verse is just two chords played alternating between the two:

A Bmin and of course A G:

Eb 2------------------------3
Bb 3------------------------3
Gb 4------------------------5
Db ---------------------------
Ab ---------------------------
Eb ---------------------------


Comments