311 - I Told Myself Chords & Tabs

 

I Told Myself Chords & Tabs

311 Chords & Tabs

Version: 2 Type: Bass Tab

I Told Myself Bass Tab

   
Artist: 311
Song: I Told Myself
Album: From Chaos (2001)
Bassist: P-Nut
Tuning: B-E-A-D-G


Intro:
G|--7--5--------7--5--------|
D|--------7-----------7-----|
A|-----------7-----------7--|
E|--------------------------|
B|--------------------------|

G|--------------------------------------------------|
D|--------------------------------------------------|
A|--------------------------------------------------|
E|--5-x3--5-x3--0-x1--0-x1--3-x2--3-x2--0-x1--0-x1--|
B|--------------------------------------------------|

G|----------------------------------------------------|
D|----------------------------------------------------|
A|-----------------------------------------------1h3--|
E|--5-x3--5-x3--0-x1--0-x1--3-x2--3-x2--0-x1--0-x-----|
B|----------------------------------------------------|


Verse 1:
G|--------------------------------------------------|
D|--------------------------------------------------|
A|--------------------------------------------------|
E|--5-3--5-3--0-1-1--0-1-1--5-2--5-2--0-1-1--0-1-1--|
B|--------------------------------------------------|

G|---------------------------------------------------|
D|---------------------------------------------------|
A|---------------------------------------------------|
E|--5-3--5-3--0-1-1--0-1-1--5-2--5-2--0-1-1--1--1-3--|
B|---------------------------------------------------|

G|---------------------------------------------------|
D|---------------------------------------------------|
A|---------------------------------------------------|
E|--5-3--5-3--0-1-1--0-1-1--5-2--5-2--0-1-1--1--1-3--|
B|---------------------------------------------------|


Pre-Chorus:
G|-------------------------------------------------------|
D|--------------------------------------------5----------|
A|-------------------------------------------------------|
E|--3-3-3-3-5-6-5--3--3-3-3-3--3-3-3-3-5-6-5----3-3-3-3--|
B|-------------------------------------------------------|

G|-----------------------------------------------|
D|--------------------------------------------5--|
A|-----------------------------------------------|
E|--3-3-3-3-5-6-5--3--3-3-3-3--3-3-3-3-5-6-5-----|
B|-----------------------------------------------|


Chorus:
G|----------------------------------------------------|
D|----------------------------------------------------|
A|-------------------------------------------------5--|
E|--0--7--5-4--0--0-7--5--4--0--7--5-4--0--0-7--5-----|
B|----------------------------------------------------|

G|-----------------------------------------------------|
D|-----------------------------------------------------|
A|-----------------------------------------------------|
E|--0--7--5-4--0--0-7--5--4--0--7--5-4--0-0-0-7--5-----|
B|--------------------------------------------------3--|

G|----------------------------------------------------|
D|----------------------------------------------------|
A|-------------------------------------------------5--|
E|--0--7--5-4--0--0-7--5--4--0--7--5-4--0--0-7--5-----|
B|----------------------------------------------------|

G|-----------------------------------------------------|
D|-----------------------------------------------------|
A|-----------------------------------------------------|
E|--0--7--5-4--0--0-7--5--4--0--7--5-4--0-0-0-7--5-----|
B|--------------------------------------------------3--|

G|--------------------------|
D|--------------------------|
A|--5--3--------5--3--------|
E|--------5--0--------5--0--|
B|--------------------------|


Verse 2:
G|--------------------------------------------------|
D|--------------------------------------------------|
A|--------------------------------------------------|
E|--5-3--5-3--0-1-1--0-1-1--5-2--5-2--0-1-1--0-1-1--|
B|--------------------------------------------------|
[ Tab from: http://www.guitartabs.cc/tabs/0-9/311/i_told_myself_btab_ver_2.html ]
G|---------------------------------------------------|
D|---------------------------------------------------|
A|---------------------------------------------------|
E|--5-3--5-3--0-1-1--0-1-1--5-2--5-2--0-1-1--1--1-3--|
B|---------------------------------------------------|

G|---------------------------------------------------|
D|---------------------------------------------------|
A|---------------------------------------------------|
E|--5-3--5-3--0-1-1--0-1-1--5-2--5-2--0-1-1--1--1-3--|
B|---------------------------------------------------|


Pre-Chorus:
G|-------------------------------------------------------|
D|--------------------------------------------5----------|
A|-------------------------------------------------------|
E|--3-3-3-3-5-6-5--3--3-3-3-3--3-3-3-3-5-6-5----3-3-3-3--|
B|-------------------------------------------------------|

G|-----------------------------------------------|
D|--------------------------------------------5--|
A|-----------------------------------------------|
E|--3-3-3-3-5-6-5--3--3-3-3-3--3-3-3-3-5-6-5-----|
B|-----------------------------------------------|


Chorus:
G|----------------------------------------------------|
D|----------------------------------------------------|
A|-------------------------------------------------5--|
E|--0--7--5-4--0--0-7--5--4--0--7--5-4--0--0-7--5-----|
B|----------------------------------------------------|

G|-----------------------------------------------------|
D|-----------------------------------------------------|
A|-----------------------------------------------------|
E|--0--7--5-4--0--0-7--5--4--0--7--5-4--0-0-0-7--5-----|
B|--------------------------------------------------3--|

G|----------------------------------------------------|
D|----------------------------------------------------|
A|-------------------------------------------------5--|
E|--0--7--5-4--0--0-7--5--4--0--7--5-4--0--0-7--5-----|
B|----------------------------------------------------|

G|-----------------------------------------------------|
D|-----------------------------------------------------|
A|-----------------------------------------------------|
E|--0--7--5-4--0--0-7--5--4--0--7--5-4--0-0-0-7--5-----|
B|--------------------------------------------------3--|


Break:
G|--------------------------------------------------|
D|--------------------------------------------------|
A|--------------------------------------------------|
E|------------------------------------------3-1-----|
B|--3~---------1~---------3~----1--1-1~---------3~--|

G|-------------------------------------------------|
D|-------------------------------------------------|
A|-------------------------------------------------|
E|-------------------------------------------------|
B|--3~-------3-1~-----1-1-3~-----1-x-1~-------/8\--|

G|-------------------------------------------------------------------|
D|-------------------------------------------------------------------|
A|-------------------------------------------------------------------|
E|-------------------------------------------------------------------|
B|--1-1-1-1-1-1-1-1-1-1-1-1-1-1-1-1-3-3-3-3-3-3-3-3-3-3-3-3-3-3-3-3--|


Chorus/Outro:
G|----------------------------------------------------|
D|----------------------------------------------------|
A|-------------------------------------------------5--|
E|--0--7--5-4--0--0-7--5--4--0--7--5-4--0--0-7--5-----|
B|----------------------------------------------------|

G|-----------------------------------------------------|
D|-----------------------------------------------------|
A|-----------------------------------------------------|
E|--0--7--5-4--0--0-7--5--4--0--7--5-4--0-0-0-7--5-----|
B|--------------------------------------------------3--|

G|----------------------------------------------------|
D|----------------------------------------------------|
A|-------------------------------------------------5--|
E|--0--7--5-4--0--0-7--5--4--0--7--5-4--0--0-7--5-----|
B|----------------------------------------------------|

G|------------------------------------------------------|
D|------------------------------------------------------|
A|------------------------------------------------------|
E|--0--7--5-4--0--0-7--5--4--0--7--5-4--0-0-0-7--5------|
B|--------------------------------------------------3~--|