311 - Hydroponic Chords & Tabs

 

Hydroponic Chords & Tabs

311 Chords & Tabs

Version: 3 Type: Bass Tab 0 ratings
1 star 2 stars 3 stars 4 stars 5 stars
comments

Hydroponic Bass Tab

-------------------------------------------------------------------------------
			     Hydroponic (4 string) - 311
-------------------------------------------------------------------------------

Tabbed By : RHbassist
e-mail: RHbassplayer@gogoworld.com

Tuning: Standard

Intro/Riff 1 
G|----------------------------------------------------------|
D|-------------------------------------------------5-(bend)-|<-Intro only
A|----------------------------------------------------------|
E|-0-0-5-5-3--3-1-1-1-0-0-5-5-3--3-1-1-1-0-0-5-5-3----------|

[ Tab from: http://www.guitartabs.cc/tabs/0-9/311/hydroponic_btab_ver_3.html ]
Riff 2
G|------------------------------------------------------|
D|------------------------------------------------------|
A|---------------------0--------------------------------|
E|-5-4-2--5-4-2--2-0-2---2-2-2-2-2-2--0--1-2-2-0-2------| (etc.)

Pre-Chorus
G|----------------------------------------|
D|----------------------------------------|
A|----------------------------------------|
E|-5-0-5-0-5-6-7-0-7-0-7-8-8-8-8-7-7-7-7--|

Chorus
G|-----------------------------------------|
D|-----------------------------------------|
A|-7-7--------7-7---------7-7--------------|
E|-----5-5-7-------5-5-7------5-5-7--5-9---|

End with
G|----------------|
D|----------------|
A|----------------|
E|-0~-(let-ring)--|

For a song structure, e-mail me @ RHbassplayer@gogoworld.com
===============================================================================
Comments