311 - How Do You Feel Chords & Tabs

 

How Do You Feel Chords & Tabs

311 Chords & Tabs

Version: 2 Type: Tab 0 ratings
1 star 2 stars 3 stars 4 stars 5 stars
comments

How Do You Feel Tab

how do you feel?


Tuning: Standard

Intro/SA verse
e|----------------------------------|
B|----------------------------------|
G|----------------------------------|
D|----------------------------------|
A|----------------------------------|
E|--2--1--0---2-2p0-----------------|

Nick Verse                              Ending on 4x
e|-------------------------------------|-------------------------------|
B|-------------------------------------|-------------------------------|
G|-------------------------------------|-------------------------------|
D|-2-2--2---4-4--4---7-7-7-7-7-7-7-7---|---9------------------------|
A|-2-2--2---4-4--4---7-7-7-7-7-7-7-7---|---9------------------------|
E|-0-0--0---2-2--2---5-5-5-5-5-5-5-5---|---7------------------------|
[ Tab from: http://www.guitartabs.cc/tabs/0-9/311/how_do_you_feel_tab_ver_2.html ]
Chorus
e|-------------------------------------------------------------------------|
B|-------------------------------------------------------------------------|
G|-------------------------------------------------------------------------|
D|-4-4-4-4-4-4-4-4--2-2-2-2-2-2-2-2--9-9-9-9-9-9-9-9--7-7-7-7-7-7-7-7------|
A|-4-4-4-4-4-4-4-4--2-2-2-2-2-2-2-2--9-9-9-9-9-9-9-9--7-7-7-7-7-7-7-7------|
E|-2-2-2-2-2-2-2-2--0-0-0-0-0-0-0-0--7-7-7-7-7-7-7-7--5-5-5-5-5-5-5-5------|

Fill/Ending
e|--------------------------|
B|--------------------------|
G|-/7---/7---/7---/7--------|
D|-/7---/7---/7---/7--------|
A|-/5---/5---/5---/5--------|
E|--------------------------|

Bridge/Breakdown
e|--------------|----------|------------|----------------|-----------------|
B|--------------|----------|------------|---------5h7p5--|-----------------|
G|/7--/7-/7-/7--|-----5h7--|----------5-|-----5h7--------|-----------------|
D|/7--/7-/7-/7--|-5h7------|--5-5--7----|-5h7------------|-----------------|
A|/5--/5-/5-/5--|----------|------------|----------------|-----------------|
E|--------------|----------|------------|----------------|-5-5--4-3--------|



im pretty sure thats right
any questions e-mail guitarmr55@aol.com
Comments