311 - How Do You Feel Chords & Tabs

 

How Do You Feel Chords & Tabs

311 Chords & Tabs

Version: 1 Type: Tab 0 ratings
1 star 2 stars 3 stars 4 stars 5 stars
comments

How Do You Feel Tab

   
-------------------------------------------------------------------------------
			     How Do You Feel? - 311
-------------------------------------------------------------------------------
Tabbed by: Ross	
Email: RFletch385@aol.com

Tuning: Standard

Intro/SA verse
e|----------------------------------|
B|----------------------------------|
G|----------------------------------|
D|----------------------------------|
A|-8--10--8------10---10-10---------|
E|-----------10---------------------|

Nick Verse                              Ending on 4x
e|-------------------------------------|-------------------------------|
B|-------------------------------------|-------------------------------|
G|-------------------------------------|-------------------------------|
D|-4-4--4---7-7--7---6-6-6-6-6-6-6-6---|--6-6--6----4------------------|
A|-4-4--4---7-7--7---4-4-4-4-4-4-4-4---|--4-4--4----2------------------|
E|-2-2--2---5-5--5---4-4-4-4-4-4-4-4---|--4-4--4----2------------------|
[ Tab from: http://www.guitartabs.cc/tabs/0-9/311/how_do_you_feel_tab.html ]
Chorus
e|-------------------------------------------------------------------------|
B|-------------------------------------------------------------------------|
G|-------------------------------------------------------------------------|
D|-4-4-4-4-4-4-4-4--2-2-2-2-2-2-2-2--4-4-4-4-4-4-4-4--2-2-2-2-2-2-2-2------|
A|-4-4-4-4-4-4-4-4--2-2-2-2-2-2-2-2--2-2-2-2-2-2-2-2--2-2-2-2-2-2-2-2------|
E|-2-2-2-2-2-2-2-2--0-0-0-0-0-0-0-0--2-2-2-2-2-2-2-2--0-0-0-0-0-0-0-0------|

Fill/Ending
e|----------------------|
B|----------------------|
G|----------------------|
D|-4---4---4---4--------|
A|-4---4---4---4--------|
E|-2---2---2---2--------|

Bridge/Breakdown
e|------------|----------|------------|----------------|-----------------|
B|------------|----------|------------|---------5h6----|-----------------|
G|------------|-----5h7--|----------5-|-----5h7-----7--|-----------------|
D|-7--7-7--7--|-5h7------|--5-5--7----|-5h7------------|-7-7--6-5--------|
A|-5--5-5--5--|----------|------------|----------------|-7-7--6-5--------|
E|-5--5-5--5--|----------|------------|----------------|-5-5--4-3--------|


| /  slide up
| \  slide down
| h  hammer-on
| p  pull-off
| ~  vibrato
| +  harmonic
| x  Mute note
===============================================================================
Comments