311 - How Do You Feel Chords & Tabs

 

How Do You Feel Chords & Tabs

311 Chords & Tabs

Version: 1 Type: Bass Tab

How Do You Feel Bass Tab

   
Artist: 311
Song: How Do You Feel?
Album: Greatest Hits (2004)
Bassist: P-Nut
Tuning: B-E-A-D-G
Notes: 


Intro:
G|----------------------------------------------------------|
D|--2-4-2---4--4--2-4-2---4--4--2-4-2---4--4--2-4-2---4--4--|
A|--------4-------------4-------------4-------------4-------|
E|----------------------------------------------------------|
B|----------------------------------------------------------| (x2)


Verse 1:
G|------------------------------|      |----------------------------------|
D|------------------------------|      |----------------------------------|
A|-------0-0-0------------------|      |-------0-0-0-------2-2-2-2-2-2-2--|
E|--2--2------------------------|      |--2--2-------4-4-4----------------|
B|-------------2-2-2-2-2-2-2-2--| (x3) |----------------------------------|

G|------------------------------|      |----------------------------------|
D|------------------------------|      |----------------------------------|
A|-------0-0-0------------------|      |-------0-0-0-------2-2-2-2-2-2-2--|
E|--2--2------------------------|      |--2--2-------4-4-4----------------|
B|-------------2-2-2-2-2-2-2-2--| (x3) |----------------------------------|


Chorus:
G|-------------------------------------------------------------------|
D|-------------------------------------------------------------------|
A|----------------------------------2-2-2-2-2-2-2-2------------------|
E|--2-2-2-2-2-2-2-2-0-0-0-0-0-0-0-0-----------------0-0-0-0-0-0-0-0--|
B|-------------------------------------------------------------------| (x2)

G|------------------|
D|------------------|
A|------------------|
E|--2--2----2----2--|
B|------------------|

[ Tab from: http://www.guitartabs.cc/tabs/0-9/311/how_do_you_feel_btab.html ]
Verse 2:
G|----------------------------------------------------------|
D|--2-4-2---4--4--2-4-2---4--4--2-4-2---4--4--2-4-2---4--4--|
A|--------4-------------4-------------4-------------4-------|
E|----------------------------------------------------------|
B|----------------------------------------------------------| (x2)

G|----------------------------------------------------------|
D|----------------------------------------------------------|
A|-------0-0-0-----------------------0-0-0-------2-2-2-2-2--|
E|--2--2------------------------2--2-------4-4-4------------|
B|-------------2-2-2-2-2-2-2-2------------------------------|

G|------------------------------|
D|------------------------------|
A|-------0-0-0------------------|
E|--2--2------------------------|
B|-------------2-2-2-2-2-2-2-2--|

G|-----------------------|
D|-----------------------|
A|-------0-0-0-------2~--|
E|--2--2-------4-4-4-----|
B|-----------------------|


Chorus:
G|-------------------------------------------------------------------|
D|-------------------------------------------------------------------|
A|----------------------------------2-2-2-2-2-2-2-2------------------|
E|--2-2-2-2-2-2-2-2-0-0-0-0-0-0-0-0-----------------0-0-0-0-0-0-0-0--|
B|-------------------------------------------------------------------| (x2)


Break:
G|------------------5h7---------------------------|
D|--------------5h7----------------------4-4-5-6--|
A|--5---5---5----------------5---5---5------------|
E|--------5------------------------5--------------|
B|------------------------------------------------|

G|--------------------5h7p5-------------------------|
D|-----------------5h7------------------------------|
A|--5---5---5---5h7------------5---5---5------------|
E|--------5--------------------------5-----5-5-4-3--|
B|--------------------------------------------------|


Outro:
G|-------------------------------------------------------------------|
D|-------------------------------------------------------------------|
A|----------------------------------2-2-2-2-2-2-2-2------------------|
E|--2-2-2-2-2-2-2-2-0-0-0-0-0-0-0-0-----------------0-0-0-0-0-0-0-0--|
B|-------------------------------------------------------------------| (x4)

G|------------------|
D|------------------|
A|------------------|
E|--2--2----2----2--|
B|------------------|