311 - Homebrew Chords & Tabs

 

Homebrew Chords & Tabs

311 Chords & Tabs

Version: 3 Type: Bass Tab 0 ratings
1 star 2 stars 3 stars 4 stars 5 stars
comments

Homebrew Bass Tab

   
Song:Homebrew
Band:311
Album:Grass-Roots
Tabber:T4-TURBO

The other tab for this is completely wrong.1st of all the bass does
the same as the guitar in the main part and the hard part is slaped.

Main:
g:-----------------------|
d:--2-2-0-----2-0-2-0----|
a:--------0-2---------2-0|
e:0----------------------|
b:-----------------------|
[ Tab from: http://www.guitartabs.cc/tabs/0-9/311/homebrew_btab_ver_3.html ]
2nd Riff:(Slap)
g:----------------------------x---3-3----------------|
d:---------x-x----------x-x-------------7p5----------|
a:----------x------------x------------0-----7-5-3-5-1|
e:0-0--0-0-----0-0--0-0----0-0--0--------------------|
b:---------------------------------------------------|
^^^ i know this most likely isnt right because im not really good at
tabbing slap so if you figure it out please E-mail me at 
kodie5@hotmail.com

Pre-Chorus:       the 4th time:
g:---------------|----------------|
d:---------------|------------7-77|
a:0-3-5-5h7-5-3-5|0-3-5-5h7-5-----|
e:---------------|----------------|
b:---------------|----------------|

Chorus:
g:--------------
d:--------------
a:-----333222000
e:3333----------
b:--------------

g:---------------------|
d:---------------------|
a:------333222000--b5-0|
e:33333----------------|
b:---------------------|

g:-----------|
d:-----------|
a:------3-2-0|
e:33333------|
b:-----------|

g:---------------|
d:---------------|
a:------333222000|
e:33333----------|
b:---------------|

End:
g:-----|
d:-----|
a:-----|
e:-----|
b:3-5-7|
Comments