311 - Homebrew Chords & Tabs

 

Homebrew Chords & Tabs

311 Chords & Tabs

Version: 2 Type: Bass Tab 0 ratings
1 star 2 stars 3 stars 4 stars 5 stars
comments

Homebrew Bass Tab

'Homebrew' -- Bass Tab
Performed by 311
From the album "Grassroots" on Capricorn Records
Music by:  T. Mahoney, N. Hexum, & A. Wills
Lyrics By: Hexum & Martinez
(c) 1995 Allegiance Music/Hydroponic Music BMI
------------
Tabbed by: Jason Vick (Slv3425@aol.com)
311 Guitar Archive - http://chromosome.colorado.edu/311archive/Home.html


Riff 1:
=======

G:-----
D:-----
A:-----
E:--0--


Riff 2A:
========

G:---------------
D:---------------
A:---------------
E:-0--0--0--0--1-


Riff 2B: (played for 1 measure)
===============================

G:---------------------
D:---------------------
A:---------------------
E:-0--0--0--0--1-1-1-1-


Chorus 1A:
==========

G:---------------------
D:---------------------
A:-0--3--5--7--5--3--5-
E:---------------------


Chorus 1B:
==========

G:-----------------------
D:------------------5--7-
A:-0--3--5--7--5---------
E:-----------------------


Chorus 1C:
==========

G:--------------------
D:--------------------
A:-0--3--5--7--5--3-3-
E:--------------------


Chorus 2A:
==========
[ Tab from: http://www.guitartabs.cc/tabs/0-9/311/homebrew_btab_ver_2.html ]
G:-----------------------------------
D:-----------------------------------
A:---------------3-3-3--2-2-2--0-0-0-
E:-3-3-3-3-3-------------------------


Chorus 2B:
==========

G:---------------------------------------------------------------
D:---------------------------------------------------------------
A:---------------3-3-3--2-2-2--0-0-0---------------------3--2--0-
E:-3-3-3-3-3---------------------------------3--5---3-3----------


Riff 3:
=======

G:------------------------------
D:------------------------------
A:-----7-7--5-5-7-5-7-----------
E:-0--------------------5--7--0-


Ending:
=======

G:--------------------------
D:--------------------------
A:--3---2---0---------------
E:----------------3---5---0-


Song structure:
===============
---> Rest 1 measure
---> Play Riff 1   
---> Play Riff 2a 
---> Play Riff 2b (x1)
---> Play Riff 2a 
---> Play Chorus 1a
---> Play Chorus 1b (x1)
---> Play Chorus 1a
---> Play Chours 1c (x1)
---> Play Chorus 2a
---> Play Chorus 2b
---> Play Chorus 2a
---> Play Riff 3
---> Play Riff 2a
---> Play Riff 2b (x1)
---> Play Riff 2a
---> Play Chorus 1a
---> Play Chorus 1b (x1)
---> Play Chorus 1a
---> Play Chorus 1c (x1)
---> Play Chorus 2a (x1)
---> Play Chorus 2b (x1)
---> Play Chorus 2a (x1)
---> Play Ending (x1)


== Last Updated:  November 12, 1996 ==
Comments