311 - Hive Chords & Tabs

 

Hive Chords & Tabs

311 Chords & Tabs

Version: 3 Type: Tab 0 ratings
1 star 2 stars 3 stars 4 stars 5 stars
comments

Hive Tab

   
	311 - "Hive"
	311
	Capricorn Records 1995

Intro
=====

e:---------------------------------
B:---------------------------------
G:-2-2-2-2-2-2-2-2-2-2-2-2-2-2-2---
D:-2-2-2-2-2-2-2-2-2-2-2-2-2-2-2-2-
A:-0-0-0-0-0-0-0-0-0-0-0-0-0-0-0-2-
E:-------------------------------0-
{PM- - - -                        }



Riff 1
======

e:---------------------------------
B:---------------------------------
G:-----2-3---3-3-------2-3---3-3---
D:-2-3-2-3---3-3-2-2-3-2-3---3-3-2-
A:-2-3-0-1---1-1-2-2-3-0-1---1-1-2-
E:-0-1-0-1---1-1-0-0-1-0-1---1-1-0-
{PM          -               -    }

e:---------------------------------
B:---------------------------------
G:-----2-3---3-3-------2-3---5-3---
D:-2-3-2-3---3-3-2-2-3-2-3---5-3-2-
A:-2-3-0-1---1-1-2-2-3-0-1---3-1-2-
E:-0-1-0-1---1-1-0-0-1-0-1---3-1-0-
{PM          -                    }

e:---------------------------------
B:---------------------------------
G:-----2-3---3-3-------2-3---3-3---
D:-2-3-2-3---3-3-2-2-3-2-3---3-3-2-
A:-2-3-0-1---1-1-2-2-3-0-1---1-1-2-
E:-0-1-0-1---1-1-0-0-1-0-1---1-1-0-
{PM          -               -    }

e:---------------------------------
B:---------------------------------
G:-----2-3---3-3-------2-3---3---3-
D:-2-3-2-3---3-3-2-2-3-2-3---3---3-
A:-2-3-0-1---1-1-2-2-3-0-1---1---1-
E:-0-1-0-1---1-1-0-0-1-0-1---1---1-
{PM          -                    }



Riff 2
======
[ Tab from: http://www.guitartabs.cc/tabs/0-9/311/hive_tab_ver_3.html ]
e:-------------------------
B:-------------------------
G:-------------------------
D:------------------------- x3
A:-------------------------
E:-0---2-3---5--3--2--2/7--

e:---------------------------------
B:---------------------------------
G:---9---6-------------------------
D:-----8---8---5-------8-----5-----
A:-----------7---7---4---7-----4---
E:-----------------6-------6-----3-
^ played very fast

e:-------------------------
B:-------------------------
G:-------------------------
D:------------------------- x3
A:-------------------------
E:-0---2-3---5--3--2--2/7--

e:----------------------------
B:----------------------------
G:-9---6-----------------6\\--
D:---8---5-8---8-------8------
A:-----------7---7-4-7--------
E:----------------------------
^ also played very fast



Riff 3
======

e:------------------------
B:------------------------
G:------------------------
D:------------------------
A:-2-2--2--2--2-5--2--5---
E:-2-2--2--2--2-5--2--5---



Between verses
==============

e:---------------------------------
B:---------------------------------
G:----------2--3--4----2-2-2-2-2---
D:-2--4--5--2--3--4----2-2-2-2-2---
A:-2--4--5--0--1--2----0-0-0-0-0-0-
E:-0--2--3-----------------------0-
{PM                    - - - - -  }



Outro
=====

e:---------
B:---------
G:-2-3-2-3-
D:-2-3-2-3-
A:-2-3-0-1-
E:-0-1-0-1-
Comments