311 - Hive Chords & Tabs

 

Hive Chords & Tabs

311 Chords & Tabs

Version: 2 Type: Bass Tab 0 ratings
1 star 2 stars 3 stars 4 stars 5 stars
comments

Hive Bass Tab

   
'Hive' -- Bass Tab
Performed by 311
From the album "311" on Capricorn Records
Music by:  C. Sexton
Lyrics by:  N. Hexum and D. Martinez
(c) 1995 Capricorn Records
---------------
Tabbed by: Jeremy Daw (summit@rideau.net)
The 311 Guitar Archive -- http://chromosome.colorado.edu/311archive/Home.html


Intro:
======

G:---------------------------------
D:---------------------------------
A:---------------------------------
E:-5-5-5-5-5-5-5-5-5-5-5-5-5-5-5-5-
B:---------------------------------


Verse a:
========

G:------------------------------------------------------------
D:------------------------------------------------------------
A:--------0---1-1-1---------0---1-1-1---------0---1-1-1-------
E:-0--1------------0-0--1------------0-0--1------------0-0--1-
B:------------------------------------------------------------


Verse b:                      Verse c:
========                      ========

G:----------------            G:-----------------
D:----------------            D:-----------------
A:-0----1----3--1-            A:--0----1----1--1-
E:----------------            E:-----------------
B:----------------            B:-----------------

The pattern for the Verse is  a, b, a, c


Pre-Chorus a:
=============
[ Tab from: http://www.guitartabs.cc/tabs/0-9/311/hive_btab_ver_2.html ]
G:---------------------------------------------------
D:---------------------------------------------------
A:-------------0-2--------------0-2--------------0-2-
E:-0-2-3-5-3-2------0-2-3-5-3-2------0-2-3-5-3-2-----
B:---------------------------------------------------


Pre-Chorus b:                Pre-Chorus c:
=============                =============				

G:-----------------          G:---------------
D:-----------------          D:---------------
A:-----------------          A:---------------
E:-2-2-2-2-3-3-3-3-          E:-2---2---3---3-
B:-----------------          B:---------------

The pattern for the Pre-Chorus is also  a, b, a, c


Chorus a:
=========

G:----------------------------------------
D:----------------------------------------
A:----------------------------------------
E:----------------------------------------
B:-0-0-0-0-0--3--0--3--0-0-0-0-0--3--0--3-


Chorus b:
=========

G:-----------------------------------
D:-----------------------------------
A:-----------------------------------
E:-0---2---3---5---6---7---5-5-5-5-5-
B:-----------------------------------


End:
====

G:--------------
D:--------------
A:-------0----1-
E:-0--1---------
B:--------------


== Last Updated:  September 16, 1997 ==
Comments